999
"DXF R12 Output" (www.mydxf.blogspot.com)
 0 
SECTION
 2 
HEADER
 9 
$ACADVER
 1 
AC1009
 9 
$EXTMIN
 10 
 0 
 20 
 0 
 9 
$EXTMAX
 10 
 8.5 
 20 
 11 
 0 
ENDSEC
 0 
SECTION
 2 
ENTITIES
0
LINE
8
Layer 1
10
-1.476340
20
-49.609000
11
0.373767
21
-50.289300
0
LINE
8
Layer 1
10
0.373767
20
-50.289300
11
-1.476340
21
-50.969600
0
LINE
8
Layer 1
10
-1.476340
20
-50.969600
11
-1.255304
21
-50.292225
0
LINE
8
Layer 1
10
-1.255304
20
-50.292225
11
-1.476340
21
-49.609000
0
LINE
8
Layer 1
10
-1.476340
20
-49.609000
11
-1.476340
21
-49.609000
0
LINE
8
Layer 1
10
-3.806630
20
-90.949800
11
-0.414760
21
-92.197000
0
LINE
8
Layer 1
10
-0.414760
20
-92.197000
11
-3.806630
21
-93.444300
0
LINE
8
Layer 1
10
-3.806630
20
-93.444300
11
-3.502263
21
-92.849419
0
LINE
8
Layer 1
10
-3.502263
20
-92.849419
11
-3.401394
21
-92.202375
0
LINE
8
Layer 1
10
-3.401394
20
-92.202375
11
-3.503143
21
-91.552669
0
LINE
8
Layer 1
10
-3.503143
20
-91.552669
11
-3.806630
21
-90.949800
0
LINE
8
Layer 1
10
-3.806630
20
-90.949800
11
-3.806630
21
-90.949800
0
LINE
8
Layer 1
10
3.806630
20
90.949800
11
0.414760
21
92.197000
0
LINE
8
Layer 1
10
0.414760
20
92.197000
11
3.806630
21
93.444300
0
LINE
8
Layer 1
10
3.806630
20
93.444300
11
3.502263
21
92.849419
0
LINE
8
Layer 1
10
3.502263
20
92.849419
11
3.401394
21
92.202375
0
LINE
8
Layer 1
10
3.401394
20
92.202375
11
3.503143
21
91.552669
0
LINE
8
Layer 1
10
3.503143
20
91.552669
11
3.806630
21
90.949800
0
LINE
8
Layer 1
10
3.806630
20
90.949800
11
3.806630
21
90.949800
0
LINE
8
Layer 1
10
10.000000
20
67.056000
11
11.128900
21
68.184900
0
LINE
8
Layer 1
10
11.128900
20
68.184900
11
7.177780
21
67.056000
0
LINE
8
Layer 1
10
7.177780
20
67.056000
11
11.128900
21
65.927100
0
LINE
8
Layer 1
10
11.128900
20
65.927100
11
10.000000
21
67.056000
0
LINE
8
Layer 1
10
10.000000
20
67.056000
11
10.000000
21
67.056000
0
LINE
8
Layer 1
10
-10.000000
20
-67.056000
11
-11.128900
21
-68.184900
0
LINE
8
Layer 1
10
-11.128900
20
-68.184900
11
-7.177780
21
-67.056000
0
LINE
8
Layer 1
10
-7.177780
20
-67.056000
11
-11.128900
21
-65.927100
0
LINE
8
Layer 1
10
-11.128900
20
-65.927100
11
-10.000000
21
-67.056000
0
LINE
8
Layer 1
10
-10.000000
20
-67.056000
11
-10.000000
21
-67.056000
0
LINE
8
Layer 1
10
-9.456220
20
64.051300
11
-9.456220
21
52.762400
0
LINE
8
Layer 1
10
-9.456220
20
52.762400
11
1.832660
21
52.762400
0
LINE
8
Layer 1
10
-10.440100
20
64.008400
11
-9.456209
21
52.762500
0
LINE
8
Layer 1
10
-9.456209
20
52.762500
11
1.789691
21
53.746391
0
LINE
8
Layer 1
10
-11.416500
20
63.879800
11
-9.456210
21
52.762400
0
LINE
8
Layer 1
10
-9.456210
20
52.762400
11
1.661190
21
54.722690
0
LINE
8
Layer 1
10
-11.416500
20
63.879800
11
-9.456210
21
52.762400
0
LINE
8
Layer 1
10
-9.456210
20
52.762400
11
1.661190
21
54.722690
0
LINE
8
Layer 1
10
-12.378000
20
63.666600
11
-9.456220
21
52.762400
0
LINE
8
Layer 1
10
-9.456220
20
52.762400
11
1.448000
21
55.684200
0
LINE
8
Layer 1
10
-13.317200
20
63.370500
11
-9.456220
21
52.762400
0
LINE
8
Layer 1
10
-9.456220
20
52.762400
11
1.151850
21
56.623500
0
LINE
8
Layer 1
10
-14.227100
20
62.993600
11
-9.456220
21
52.762400
0
LINE
8
Layer 1
10
-9.456220
20
52.762400
11
0.774975
21
57.533300
0
LINE
8
Layer 1
10
-15.100700
20
62.538900
11
-9.456230
21
52.762400
0
LINE
8
Layer 1
10
-9.456230
20
52.762400
11
0.320229
21
58.406900
0
LINE
8
Layer 1
10
-15.931300
20
62.009700
11
-9.456230
21
52.762400
0
LINE
8
Layer 1
10
-9.456230
20
52.762400
11
-0.208919
21
59.237500
0
LINE
8
Layer 1
10
-16.712600
20
61.410200
11
-9.456230
21
52.762400
0
LINE
8
Layer 1
10
-9.456230
20
52.762400
11
-0.808441
21
60.018800
0
LINE
8
Layer 1
10
-17.438700
20
60.744900
11
-9.456220
21
52.762400
0
LINE
8
Layer 1
10
-9.456220
20
52.762400
11
-1.473780
21
60.744900
0
LINE
8
Layer 1
10
-18.104000
20
60.018800
11
-9.456230
21
52.762400
0
LINE
8
Layer 1
10
-9.456230
20
52.762400
11
-2.199880
21
61.410200
0
LINE
8
Layer 1
10
-18.703500
20
59.237500
11
-9.456190
21
52.762470
0
LINE
8
Layer 1
10
-9.456190
20
52.762470
11
-2.981160
21
62.009780
0
LINE
8
Layer 1
10
-19.232700
20
58.406900
11
-9.456240
21
52.762460
0
LINE
8
Layer 1
10
-9.456240
20
52.762460
11
-3.811800
21
62.538920
0
LINE
8
Layer 1
10
-19.687400
20
57.533300
11
-9.456200
21
52.762410
0
LINE
8
Layer 1
10
-9.456200
20
52.762410
11
-4.685320
21
62.993610
0
LINE
8
Layer 1
10
-20.064300
20
56.623500
11
-9.456200
21
52.762480
0
LINE
8
Layer 1
10
-9.456200
20
52.762480
11
-5.595180
21
63.370580
0
LINE
8
Layer 1
10
-20.360500
20
55.684200
11
-9.456300
21
52.762420
0
LINE
8
Layer 1
10
-9.456300
20
52.762420
11
-6.534530
21
63.666620
0
LINE
8
Layer 1
10
-20.573600
20
54.722700
11
-9.456200
21
52.762410
0
LINE
8
Layer 1
10
-9.456200
20
52.762410
11
-7.495910
21
63.879810
0
LINE
8
Layer 1
10
-20.702200
20
53.746300
11
-9.456300
21
52.762409
0
LINE
8
Layer 1
10
-9.456300
20
52.762409
11
-8.472415
21
64.008309
0
LINE
8
Hilfsmittel
10
31.240400
20
-15.317100
11
30.970221
21
-16.059582
0
LINE
8
Hilfsmittel
10
30.970221
20
-16.059582
11
31.086437
21
-16.317704
0
LINE
8
Hilfsmittel
10
31.086437
20
-16.317704
11
31.912626
21
-16.803696
0
LINE
8
Hilfsmittel
10
31.912626
20
-16.803696
11
32.577590
21
-17.473400
0
LINE
8
Hilfsmittel
10
32.577590
20
-17.473400
11
33.052349
21
-18.289049
0
LINE
8
Hilfsmittel
10
33.052349
20
-18.289049
11
33.307927
21
-19.212874
0
LINE
8
Hilfsmittel
10
33.307927
20
-19.212874
11
33.527169
21
-19.391932
0
LINE
8
Hilfsmittel
10
33.527169
20
-19.391932
11
34.314400
21
-19.323100
0
LINE
8
Hilfsmittel
10
34.314400
20
-19.323100
11
34.490049
21
-19.109474
0
LINE
8
Hilfsmittel
10
34.490049
20
-19.109474
11
34.156265
21
-17.856378
0
LINE
8
Hilfsmittel
10
34.156265
20
-17.856378
11
33.517945
21
-16.751830
0
LINE
8
Hilfsmittel
10
33.517945
20
-16.751830
11
32.616210
21
-15.849417
0
LINE
8
Hilfsmittel
10
32.616210
20
-15.849417
11
31.492179
21
-15.202724
0
LINE
8
Hilfsmittel
10
31.492179
20
-15.202724
11
31.240372
21
-15.317105
0
LINE
8
Hilfsmittel
10
31.240372
20
-15.317105
11
31.240400
21
-15.317100
0
LINE
8
Hilfsmittel
10
24.932600
20
42.325500
11
25.759074
21
42.253257
0
LINE
8
Hilfsmittel
10
25.759074
20
42.253257
11
25.955929
21
42.414468
0
LINE
8
Hilfsmittel
10
25.955929
20
42.414468
11
26.210500
21
43.348981
0
LINE
8
Hilfsmittel
10
26.210500
20
43.348981
11
26.689015
21
44.173497
0
LINE
8
Hilfsmittel
10
26.689015
20
44.173497
11
27.361605
21
44.849090
0
LINE
8
Hilfsmittel
10
27.361605
20
44.849090
11
28.198399
21
45.336838
0
LINE
8
Hilfsmittel
10
28.198399
20
45.336838
11
28.303165
21
45.568703
0
LINE
8
Hilfsmittel
10
28.303165
20
45.568703
11
28.019406
21
46.348446
0
LINE
8
Hilfsmittel
10
28.019406
20
46.348446
11
27.792646
21
46.451711
0
LINE
8
Hilfsmittel
10
27.792646
20
46.451711
11
26.657980
21
45.803369
0
LINE
8
Hilfsmittel
10
26.657980
20
45.803369
11
25.748644
21
44.895070
0
LINE
8
Hilfsmittel
10
25.748644
20
44.895070
11
25.106686
21
43.781611
0
LINE
8
Hilfsmittel
10
25.106686
20
43.781611
11
24.774156
21
42.517791
0
LINE
8
Hilfsmittel
10
24.774156
20
42.517791
11
24.932602
21
42.325493
0
LINE
8
Hilfsmittel
10
24.932602
20
42.325493
11
24.932600
21
42.325500
0
LINE
8
Hilfsmittel
10
28.810300
20
37.267000
11
28.954301
21
38.084033
0
LINE
8
Hilfsmittel
10
28.954301
20
38.084033
11
28.810859
21
38.294190
0
LINE
8
Hilfsmittel
10
28.810859
20
38.294190
11
27.902090
21
38.629240
0
LINE
8
Hilfsmittel
10
27.902090
20
38.629240
11
27.122418
21
39.177795
0
LINE
8
Hilfsmittel
10
27.122418
20
39.177795
11
26.508014
21
39.906708
0
LINE
8
Hilfsmittel
10
26.508014
20
39.906708
11
26.095049
21
40.782830
0
LINE
8
Hilfsmittel
10
26.095049
20
40.782830
11
25.873197
21
40.907406
0
LINE
8
Hilfsmittel
10
25.873197
20
40.907406
11
25.071690
21
40.692686
0
LINE
8
Hilfsmittel
10
25.071690
20
40.692686
11
24.949054
21
40.475790
0
LINE
8
Hilfsmittel
10
24.949054
20
40.475790
11
25.496036
21
39.288934
0
LINE
8
Hilfsmittel
10
25.496036
20
39.288934
11
26.321625
21
38.303894
0
LINE
8
Hilfsmittel
10
26.321625
20
38.303894
11
27.374897
21
37.567335
0
LINE
8
Hilfsmittel
10
27.374897
20
37.567335
11
28.604924
21
37.125920
0
LINE
8
Hilfsmittel
10
28.604924
20
37.125920
11
28.810300
21
37.267003
0
LINE
8
Hilfsmittel
10
28.810300
20
37.267003
11
28.810300
21
37.267000
0
LINE
8
Hilfsmittel
10
34.187600
20
40.689100
11
33.386228
21
40.903764
0
LINE
8
Hilfsmittel
10
33.386228
20
40.903764
11
33.164370
21
40.779183
0
LINE
8
Hilfsmittel
10
33.164370
20
40.779183
11
32.751389
21
39.903073
0
LINE
8
Hilfsmittel
10
32.751389
20
39.903073
11
32.136968
21
39.174177
0
LINE
8
Hilfsmittel
10
32.136968
20
39.174177
11
31.357280
21
38.625639
0
LINE
8
Hilfsmittel
10
31.357280
20
38.625639
11
30.448500
21
38.290603
0
LINE
8
Hilfsmittel
10
30.448500
20
38.290603
11
30.305063
21
38.080455
0
LINE
8
Hilfsmittel
10
30.305063
20
38.080455
11
30.449112
21
37.263284
0
LINE
8
Hilfsmittel
10
30.449112
20
37.263284
11
30.654493
21
37.122210
0
LINE
8
Hilfsmittel
10
30.654493
20
37.122210
11
31.884505
21
37.563669
0
LINE
8
Hilfsmittel
10
31.884505
20
37.563669
11
32.937749
21
38.300265
0
LINE
8
Hilfsmittel
10
32.937749
20
38.300265
11
33.763303
21
39.285334
0
LINE
8
Hilfsmittel
10
33.763303
20
39.285334
11
34.310243
21
40.472210
0
LINE
8
Hilfsmittel
10
34.310243
20
40.472210
11
34.187595
21
40.689100
0
LINE
8
Hilfsmittel
10
34.187595
20
40.689100
11
34.187600
21
40.689100
0
LINE
8
Hilfsmittel
10
-28.367000
20
26.247000
11
-29.377826
21
26.579839
0
LINE
8
Hilfsmittel
10
-29.377826
20
26.579839
11
-30.149026
21
27.260102
0
LINE
8
Hilfsmittel
10
-30.149026
20
27.260102
11
-30.619651
21
28.207881
0
LINE
8
Hilfsmittel
10
-30.619651
20
28.207881
11
-30.728750
21
29.343270
0
LINE
8
Hilfsmittel
10
-30.728750
20
29.343270
11
-30.465133
21
30.455968
0
LINE
8
Hilfsmittel
10
-30.465133
20
30.455968
11
-29.886478
21
31.291589
0
LINE
8
Hilfsmittel
10
-29.886478
20
31.291589
11
-29.026398
21
31.818305
0
LINE
8
Hilfsmittel
10
-29.026398
20
31.818305
11
-27.918510
21
32.004290
0
LINE
8
Hilfsmittel
10
-27.918510
20
32.004290
11
-26.861014
21
31.849970
0
LINE
8
Hilfsmittel
10
-26.861014
20
31.849970
11
-26.012190
21
31.312310
0
LINE
8
Hilfsmittel
10
-26.012190
20
31.312310
11
-25.450367
21
30.583543
0
LINE
8
Hilfsmittel
10
-25.450367
20
30.583543
11
-25.147285
21
29.702215
0
LINE
8
Hilfsmittel
10
-25.147285
20
29.702215
11
-25.116498
21
28.743034
0
LINE
8
Hilfsmittel
10
-25.116498
20
28.743034
11
-25.371557
21
27.780710
0
LINE
8
Hilfsmittel
10
-25.371557
20
27.780710
11
-25.825090
21
27.115166
0
LINE
8
Hilfsmittel
10
-25.825090
20
27.115166
11
-26.452367
21
26.580080
0
LINE
8
Hilfsmittel
10
-26.452367
20
26.580080
11
-27.336818
21
26.274667
0
LINE
8
Hilfsmittel
10
-27.336818
20
26.274667
11
-28.366997
21
26.246996
0
LINE
8
Hilfsmittel
10
-28.366997
20
26.246996
11
-28.367000
21
26.247000
0
LINE
8
Hilfsmittel
10
-27.196530
20
27.905970
11
-26.823618
21
28.665517
0
LINE
8
Hilfsmittel
10
-26.823618
20
28.665517
11
-26.821773
21
29.531404
0
LINE
8
Hilfsmittel
10
-26.821773
20
29.531404
11
-27.143243
21
30.264711
0
LINE
8
Hilfsmittel
10
-27.143243
20
30.264711
11
-27.740277
21
30.626520
0
LINE
8
Hilfsmittel
10
-27.740277
20
30.626520
11
-28.252893
21
30.609796
0
LINE
8
Hilfsmittel
10
-28.252893
20
30.609796
11
-28.633812
21
30.351774
0
LINE
8
Hilfsmittel
10
-28.633812
20
30.351774
11
-28.936327
21
29.850782
0
LINE
8
Hilfsmittel
10
-28.936327
20
29.850782
11
-29.021458
21
29.119264
0
LINE
8
Hilfsmittel
10
-29.021458
20
29.119264
11
-28.945006
21
28.436755
0
LINE
8
Hilfsmittel
10
-28.945006
20
28.436755
11
-28.719501
21
27.952624
0
LINE
8
Hilfsmittel
10
-28.719501
20
27.952624
11
-28.350722
21
27.674286
0
LINE
8
Hilfsmittel
10
-28.350722
20
27.674286
11
-27.844448
21
27.609154
0
LINE
8
Hilfsmittel
10
-27.844448
20
27.609154
11
-27.468492
21
27.681606
0
LINE
8
Hilfsmittel
10
-27.468492
20
27.681606
11
-27.196531
21
27.905964
0
LINE
8
Hilfsmittel
10
-27.196531
20
27.905964
11
-27.196530
21
27.905970
0
LINE
8
Hilfsmittel
10
-36.425270
20
29.113600
11
-36.425200
21
31.919400
0
LINE
8
Hilfsmittel
10
-36.425200
20
31.919400
11
-34.786100
21
31.919400
0
LINE
8
Hilfsmittel
10
-34.786100
20
31.919400
11
-32.772710
21
31.839128
0
LINE
8
Hilfsmittel
10
-32.772710
20
31.839128
11
-31.950375
21
31.431356
0
LINE
8
Hilfsmittel
10
-31.950375
20
31.431356
11
-31.591980
21
30.704708
0
LINE
8
Hilfsmittel
10
-31.591980
20
30.704708
11
-31.655192
21
30.086568
0
LINE
8
Hilfsmittel
10
-31.655192
20
30.086568
11
-31.982129
21
29.626538
0
LINE
8
Hilfsmittel
10
-31.982129
20
29.626538
11
-32.230479
21
29.428376
0
LINE
8
Hilfsmittel
10
-32.230479
20
29.428376
11
-31.905142
21
29.222055
0
LINE
8
Hilfsmittel
10
-31.905142
20
29.222055
11
-31.449485
21
28.753004
0
LINE
8
Hilfsmittel
10
-31.449485
20
28.753004
11
-31.320161
21
28.036495
0
LINE
8
Hilfsmittel
10
-31.320161
20
28.036495
11
-31.422298
21
27.380549
0
LINE
8
Hilfsmittel
10
-31.422298
20
27.380549
11
-31.807880
21
26.867205
0
LINE
8
Hilfsmittel
10
-31.807880
20
26.867205
11
-32.152149
21
26.589427
0
LINE
8
Hilfsmittel
10
-32.152149
20
26.589427
11
-32.580161
21
26.435847
0
LINE
8
Hilfsmittel
10
-32.580161
20
26.435847
11
-34.539750
21
26.335344
0
LINE
8
Hilfsmittel
10
-34.539750
20
26.335344
11
-36.425200
21
26.307742
0
LINE
8
Hilfsmittel
10
-36.425200
20
26.307742
11
-36.425270
21
29.113600
0
LINE
8
Hilfsmittel
10
-33.139740
20
27.812510
11
-32.990397
21
28.185864
0
LINE
8
Hilfsmittel
10
-32.990397
20
28.185864
11
-33.035007
21
28.443158
0
LINE
8
Hilfsmittel
10
-33.035007
20
28.443158
11
-33.193362
21
28.603323
0
LINE
8
Hilfsmittel
10
-33.193362
20
28.603323
11
-33.998457
21
28.708565
0
LINE
8
Hilfsmittel
10
-33.998457
20
28.708565
11
-34.707800
21
28.708600
0
LINE
8
Hilfsmittel
10
-34.707800
20
28.708600
11
-34.707800
21
28.185900
0
LINE
8
Hilfsmittel
10
-34.707800
20
28.185900
11
-34.707800
21
27.663200
0
LINE
8
Hilfsmittel
10
-34.707800
20
27.663200
11
-33.998400
21
27.663200
0
LINE
8
Hilfsmittel
10
-33.998400
20
27.663200
11
-33.388501
21
27.689731
0
LINE
8
Hilfsmittel
10
-33.388501
20
27.689731
11
-33.139680
21
27.812543
0
LINE
8
Hilfsmittel
10
-33.139680
20
27.812543
11
-33.139740
21
27.812510
0
LINE
8
Hilfsmittel
10
-33.227901
20
30.000620
11
-33.247487
21
30.392643
0
LINE
8
Hilfsmittel
10
-33.247487
20
30.392643
11
-33.448838
21
30.548253
0
LINE
8
Hilfsmittel
10
-33.448838
20
30.548253
11
-34.037517
21
30.575342
0
LINE
8
Hilfsmittel
10
-34.037517
20
30.575342
11
-34.707800
21
30.575300
0
LINE
8
Hilfsmittel
10
-34.707800
20
30.575300
11
-34.707800
21
30.161900
0
LINE
8
Hilfsmittel
10
-34.707800
20
30.161900
11
-34.707800
21
29.748400
0
LINE
8
Hilfsmittel
10
-34.707800
20
29.748400
11
-34.017897
21
29.769877
0
LINE
8
Hilfsmittel
10
-34.017897
20
29.769877
11
-33.406996
21
29.816517
0
LINE
8
Hilfsmittel
10
-33.406996
20
29.816517
11
-33.227867
21
30.000673
0
LINE
8
Hilfsmittel
10
-33.227867
20
30.000673
11
-33.227901
21
30.000620
0
LINE
8
Hilfsmittel
10
-24.328531
20
29.119255
11
-24.328500
21
31.919400
0
LINE
8
Hilfsmittel
10
-24.328500
20
31.919400
11
-22.614700
21
31.919400
0
LINE
8
Hilfsmittel
10
-22.614700
20
31.919400
11
-20.684955
21
31.850018
0
LINE
8
Hilfsmittel
10
-20.684955
20
31.850018
11
-19.846250
21
31.536061
0
LINE
8
Hilfsmittel
10
-19.846250
20
31.536061
11
-19.409882
21
31.006470
0
LINE
8
Hilfsmittel
10
-19.409882
20
31.006470
11
-19.254694
21
30.339288
0
LINE
8
Hilfsmittel
10
-19.254694
20
30.339288
11
-19.383276
21
29.664933
0
LINE
8
Hilfsmittel
10
-19.383276
20
29.664933
11
-19.798213
21
29.113821
0
LINE
8
Hilfsmittel
10
-19.798213
20
29.113821
11
-20.062723
21
28.902764
0
LINE
8
Hilfsmittel
10
-20.062723
20
28.902764
11
-19.853642
21
28.775612
0
LINE
8
Hilfsmittel
10
-19.853642
20
28.775612
11
-19.460769
21
28.251541
0
LINE
8
Hilfsmittel
10
-19.460769
20
28.251541
11
-19.245741
21
27.276712
0
LINE
8
Hilfsmittel
10
-19.245741
20
27.276712
11
-19.131864
21
26.447236
0
LINE
8
Hilfsmittel
10
-19.131864
20
26.447236
11
-19.225622
21
26.337673
0
LINE
8
Hilfsmittel
10
-19.225622
20
26.337673
11
-19.935491
21
26.335231
0
LINE
8
Hilfsmittel
10
-19.935491
20
26.335231
11
-20.781164
21
26.356398
0
LINE
8
Hilfsmittel
10
-20.781164
20
26.356398
11
-20.835116
21
26.655085
0
LINE
8
Hilfsmittel
10
-20.835116
20
26.655085
11
-20.934128
21
27.383898
0
LINE
8
Hilfsmittel
10
-20.934128
20
27.383898
11
-21.167037
21
28.037273
0
LINE
8
Hilfsmittel
10
-21.167037
20
28.037273
11
-21.415788
21
28.229629
0
LINE
8
Hilfsmittel
10
-21.415788
20
28.229629
11
-21.982949
21
28.260516
0
LINE
8
Hilfsmittel
10
-21.982949
20
28.260516
11
-22.611000
21
28.260500
0
LINE
8
Hilfsmittel
10
-22.611000
20
28.260500
11
-22.611000
21
27.289800
0
LINE
8
Hilfsmittel
10
-22.611000
20
27.289800
11
-22.611000
21
26.319100
0
LINE
8
Hilfsmittel
10
-22.611000
20
26.319100
11
-23.469800
21
26.319100
0
LINE
8
Hilfsmittel
10
-23.469800
20
26.319100
11
-24.328500
21
26.319100
0
LINE
8
Hilfsmittel
10
-24.328500
20
26.319100
11
-24.328531
21
29.119255
0
LINE
8
Hilfsmittel
10
-21.165071
20
29.610036
11
-20.969570
21
29.977433
0
LINE
8
Hilfsmittel
10
-20.969570
20
29.977433
11
-21.074232
21
30.393061
0
LINE
8
Hilfsmittel
10
-21.074232
20
30.393061
11
-21.291967
21
30.516163
0
LINE
8
Hilfsmittel
10
-21.291967
20
30.516163
11
-21.895617
21
30.563884
0
LINE
8
Hilfsmittel
10
-21.895617
20
30.563884
11
-22.611089
21
30.589764
0
LINE
8
Hilfsmittel
10
-22.611089
20
30.589764
11
-22.611000
21
30.022500
0
LINE
8
Hilfsmittel
10
-22.611000
20
30.022500
11
-22.611000
21
29.455300
0
LINE
8
Hilfsmittel
10
-22.611000
20
29.455300
11
-21.986400
21
29.455300
0
LINE
8
Hilfsmittel
10
-21.986400
20
29.455300
11
-21.165015
21
29.610062
0
LINE
8
Hilfsmittel
10
-21.165015
20
29.610062
11
-21.165071
21
29.610036
0
LINE
8
Hilfsmittel
10
-18.504171
20
29.119255
11
-18.504100
21
31.919400
0
LINE
8
Hilfsmittel
10
-18.504100
20
31.919400
11
-17.645400
21
31.919400
0
LINE
8
Hilfsmittel
10
-17.645400
20
31.919400
11
-16.786700
21
31.919400
0
LINE
8
Hilfsmittel
10
-16.786700
20
31.919400
11
-16.786700
21
29.828600
0
LINE
8
Hilfsmittel
10
-16.786700
20
29.828600
11
-16.786700
21
27.737800
0
LINE
8
Hilfsmittel
10
-16.786700
20
27.737800
11
-15.554600
21
27.737800
0
LINE
8
Hilfsmittel
10
-15.554600
20
27.737800
11
-14.322500
21
27.737800
0
LINE
8
Hilfsmittel
10
-14.322500
20
27.737800
11
-14.322500
21
27.028500
0
LINE
8
Hilfsmittel
10
-14.322500
20
27.028500
11
-14.322500
21
26.319100
0
LINE
8
Hilfsmittel
10
-14.322500
20
26.319100
11
-16.413300
21
26.319100
0
LINE
8
Hilfsmittel
10
-16.413300
20
26.319100
11
-18.504100
21
26.319100
0
LINE
8
Hilfsmittel
10
-18.504100
20
26.319100
11
-18.504171
21
29.119255
0
LINE
8
Hilfsmittel
10
-13.575871
20
29.119255
11
-13.575800
21
31.919400
0
LINE
8
Hilfsmittel
10
-13.575800
20
31.919400
11
-11.261000
21
31.919400
0
LINE
8
Hilfsmittel
10
-11.261000
20
31.919400
11
-8.946210
21
31.919400
0
LINE
8
Hilfsmittel
10
-8.946210
20
31.919400
11
-8.946210
21
31.210100
0
LINE
8
Hilfsmittel
10
-8.946210
20
31.210100
11
-8.946210
21
30.500700
0
LINE
8
Hilfsmittel
10
-8.946210
20
30.500700
11
-10.402300
21
30.500700
0
LINE
8
Hilfsmittel
10
-10.402300
20
30.500700
11
-11.858400
21
30.500700
0
LINE
8
Hilfsmittel
10
-11.858400
20
30.500700
11
-11.858400
21
30.127300
0
LINE
8
Hilfsmittel
10
-11.858400
20
30.127300
11
-11.858400
21
29.754000
0
LINE
8
Hilfsmittel
10
-11.858400
20
29.754000
11
-10.551600
21
29.754000
0
LINE
8
Hilfsmittel
10
-10.551600
20
29.754000
11
-9.244900
21
29.754000
0
LINE
8
Hilfsmittel
10
-9.244900
20
29.754000
11
-9.244900
21
29.119300
0
LINE
8
Hilfsmittel
10
-9.244900
20
29.119300
11
-9.244900
21
28.484600
0
LINE
8
Hilfsmittel
10
-9.244900
20
28.484600
11
-10.551600
21
28.484600
0
LINE
8
Hilfsmittel
10
-10.551600
20
28.484600
11
-11.858400
21
28.484600
0
LINE
8
Hilfsmittel
10
-11.858400
20
28.484600
11
-11.858400
21
28.111200
0
LINE
8
Hilfsmittel
10
-11.858400
20
28.111200
11
-11.858400
21
27.737800
0
LINE
8
Hilfsmittel
10
-11.858400
20
27.737800
11
-10.365000
21
27.737800
0
LINE
8
Hilfsmittel
10
-10.365000
20
27.737800
11
-8.871540
21
27.737800
0
LINE
8
Hilfsmittel
10
-8.871540
20
27.737800
11
-8.871540
21
27.028500
0
LINE
8
Hilfsmittel
10
-8.871540
20
27.028500
11
-8.871540
21
26.319100
0
LINE
8
Hilfsmittel
10
-8.871540
20
26.319100
11
-11.223700
21
26.319100
0
LINE
8
Hilfsmittel
10
-11.223700
20
26.319100
11
-13.575800
21
26.319100
0
LINE
8
Hilfsmittel
10
-13.575800
20
26.319100
11
-13.575871
21
29.119255
0
LINE
8
Hilfsmittel
10
-6.706121
20
28.409876
11
-6.706080
21
30.500700
0
LINE
8
Hilfsmittel
10
-6.706080
20
30.500700
11
-7.490130
21
30.500700
0
LINE
8
Hilfsmittel
10
-7.490130
20
30.500700
11
-8.274170
21
30.500700
0
LINE
8
Hilfsmittel
10
-8.274170
20
30.500700
11
-8.274170
21
31.210100
0
LINE
8
Hilfsmittel
10
-8.274170
20
31.210100
11
-8.274170
21
31.919400
0
LINE
8
Hilfsmittel
10
-8.274170
20
31.919400
11
-5.884690
21
31.919400
0
LINE
8
Hilfsmittel
10
-5.884690
20
31.919400
11
-3.495210
21
31.919400
0
LINE
8
Hilfsmittel
10
-3.495210
20
31.919400
11
-3.495210
21
31.210100
0
LINE
8
Hilfsmittel
10
-3.495210
20
31.210100
11
-3.495210
21
30.500700
0
LINE
8
Hilfsmittel
10
-3.495210
20
30.500700
11
-4.279260
21
30.500700
0
LINE
8
Hilfsmittel
10
-4.279260
20
30.500700
11
-5.063310
21
30.500700
0
LINE
8
Hilfsmittel
10
-5.063310
20
30.500700
11
-5.063310
21
28.409900
0
LINE
8
Hilfsmittel
10
-5.063310
20
28.409900
11
-5.063310
21
26.319100
0
LINE
8
Hilfsmittel
10
-5.063310
20
26.319100
11
-5.884690
21
26.319100
0
LINE
8
Hilfsmittel
10
-5.884690
20
26.319100
11
-6.706080
21
26.319100
0
LINE
8
Hilfsmittel
10
-6.706080
20
26.319100
11
-6.706121
21
28.409876
0
LINE
8
Hilfsmittel
10
-1.479131
20
28.409876
11
-1.479090
21
30.500700
0
LINE
8
Hilfsmittel
10
-1.479090
20
30.500700
11
-2.263140
21
30.500700
0
LINE
8
Hilfsmittel
10
-2.263140
20
30.500700
11
-3.047190
21
30.500700
0
LINE
8
Hilfsmittel
10
-3.047190
20
30.500700
11
-3.047190
21
31.210100
0
LINE
8
Hilfsmittel
10
-3.047190
20
31.210100
11
-3.047190
21
31.919400
0
LINE
8
Hilfsmittel
10
-3.047190
20
31.919400
11
-0.620370
21
31.919400
0
LINE
8
Hilfsmittel
10
-0.620370
20
31.919400
11
1.806450
21
31.919400
0
LINE
8
Hilfsmittel
10
1.806450
20
31.919400
11
1.806450
21
31.210100
0
LINE
8
Hilfsmittel
10
1.806450
20
31.210100
11
1.806450
21
30.500700
0
LINE
8
Hilfsmittel
10
1.806450
20
30.500700
11
1.022400
21
30.500700
0
LINE
8
Hilfsmittel
10
1.022400
20
30.500700
11
0.238349
21
30.500700
0
LINE
8
Hilfsmittel
10
0.238349
20
30.500700
11
0.238349
21
28.409900
0
LINE
8
Hilfsmittel
10
0.238349
20
28.409900
11
0.238349
21
26.319100
0
LINE
8
Hilfsmittel
10
0.238349
20
26.319100
11
-0.620370
21
26.319100
0
LINE
8
Hilfsmittel
10
-0.620370
20
26.319100
11
-1.479090
21
26.319100
0
LINE
8
Hilfsmittel
10
-1.479090
20
26.319100
11
-1.479131
21
28.409876
0
LINE
8
Hilfsmittel
10
2.403769
20
29.119255
11
2.403810
21
31.919400
0
LINE
8
Hilfsmittel
10
2.403810
20
31.919400
11
3.281199
21
31.919428
0
LINE
8
Hilfsmittel
10
3.281199
20
31.919428
11
4.158585
21
31.919459
0
LINE
8
Hilfsmittel
10
4.158585
20
31.919459
11
4.138152
21
29.119259
0
LINE
8
Hilfsmittel
10
4.138152
20
29.119259
11
4.117719
21
26.319059
0
LINE
8
Hilfsmittel
10
4.117719
20
26.319059
11
3.260770
21
26.319100
0
LINE
8
Hilfsmittel
10
3.260770
20
26.319100
11
2.403810
21
26.319100
0
LINE
8
Hilfsmittel
10
2.403810
20
26.319100
11
2.403769
21
29.119255
0
LINE
8
Layer 1
10
36.787800
20
41.910000
11
36.544025
21
43.761220
0
LINE
8
Layer 1
10
36.544025
20
43.761220
11
37.335658
21
43.973279
0
LINE
8
Layer 1
10
37.335658
20
43.973279
11
37.607288
21
41.910009
0
LINE
8
Layer 1
10
37.607288
20
41.910009
11
36.787800
21
41.910000
0
LINE
8
Layer 1
10
36.544000
20
43.761800
11
35.829403
21
45.486850
0
LINE
8
Layer 1
10
35.829403
20
45.486850
11
36.539177
21
45.896571
0
LINE
8
Layer 1
10
36.539177
20
45.896571
11
37.335565
21
43.973901
0
LINE
8
Layer 1
10
37.335565
20
43.973901
11
36.544000
21
43.761800
0
LINE
8
Layer 1
10
36.787800
20
41.910000
11
36.544025
21
43.761220
0
LINE
8
Layer 1
10
36.544025
20
43.761220
11
37.335658
21
43.973279
0
LINE
8
Layer 1
10
37.335658
20
43.973279
11
37.607288
21
41.910009
0
LINE
8
Layer 1
10
37.607288
20
41.910009
11
36.787800
21
41.910000
0
LINE
8
Layer 1
10
36.544000
20
43.761800
11
35.829403
21
45.486850
0
LINE
8
Layer 1
10
35.829403
20
45.486850
11
36.539177
21
45.896571
0
LINE
8
Layer 1
10
36.539177
20
45.896571
11
37.335565
21
43.973901
0
LINE
8
Layer 1
10
37.335565
20
43.973901
11
36.544000
21
43.761800
0
LINE
8
Layer 1
10
36.787800
20
41.910000
11
36.544025
21
43.761220
0
LINE
8
Layer 1
10
36.544025
20
43.761220
11
37.335658
21
43.973279
0
LINE
8
Layer 1
10
37.335658
20
43.973279
11
37.607288
21
41.910009
0
LINE
8
Layer 1
10
37.607288
20
41.910009
11
36.787800
21
41.910000
0
LINE
8
Layer 1
10
36.544000
20
43.761800
11
35.829403
21
45.486850
0
LINE
8
Layer 1
10
35.829403
20
45.486850
11
36.539177
21
45.896571
0
LINE
8
Layer 1
10
36.539177
20
45.896571
11
37.335565
21
43.973901
0
LINE
8
Layer 1
10
37.335565
20
43.973901
11
36.544000
21
43.761800
0
LINE
8
Layer 1
10
36.787800
20
41.910000
11
36.544025
21
43.761220
0
LINE
8
Layer 1
10
36.544025
20
43.761220
11
37.335658
21
43.973279
0
LINE
8
Layer 1
10
37.335658
20
43.973279
11
37.607288
21
41.910009
0
LINE
8
Layer 1
10
37.607288
20
41.910009
11
36.787800
21
41.910000
0
LINE
8
Layer 1
10
36.544000
20
43.761800
11
35.829403
21
45.486850
0
LINE
8
Layer 1
10
35.829403
20
45.486850
11
36.539177
21
45.896571
0
LINE
8
Layer 1
10
36.539177
20
45.896571
11
37.335565
21
43.973901
0
LINE
8
Layer 1
10
37.335565
20
43.973901
11
36.544000
21
43.761800
0
LINE
8
Layer 1
10
36.787800
20
41.910000
11
36.544025
21
43.761220
0
LINE
8
Layer 1
10
36.544025
20
43.761220
11
37.335658
21
43.973279
0
LINE
8
Layer 1
10
37.335658
20
43.973279
11
37.607288
21
41.910009
0
LINE
8
Layer 1
10
37.607288
20
41.910009
11
36.787800
21
41.910000
0
LINE
8
Layer 1
10
36.544000
20
43.761800
11
35.829403
21
45.486850
0
LINE
8
Layer 1
10
35.829403
20
45.486850
11
36.539177
21
45.896571
0
LINE
8
Layer 1
10
36.539177
20
45.896571
11
37.335565
21
43.973901
0
LINE
8
Layer 1
10
37.335565
20
43.973901
11
36.544000
21
43.761800
0
LINE
8
Layer 1
10
36.787800
20
41.910000
11
36.544025
21
43.761220
0
LINE
8
Layer 1
10
36.544025
20
43.761220
11
37.335658
21
43.973279
0
LINE
8
Layer 1
10
37.335658
20
43.973279
11
37.607288
21
41.910009
0
LINE
8
Layer 1
10
37.607288
20
41.910009
11
36.787800
21
41.910000
0
LINE
8
Layer 1
10
36.544000
20
43.761800
11
35.829403
21
45.486850
0
LINE
8
Layer 1
10
35.829403
20
45.486850
11
36.539177
21
45.896571
0
LINE
8
Layer 1
10
36.539177
20
45.896571
11
37.335565
21
43.973901
0
LINE
8
Layer 1
10
37.335565
20
43.973901
11
36.544000
21
43.761800
0
LINE
8
Layer 1
10
36.787800
20
41.910000
11
36.544025
21
43.761220
0
LINE
8
Layer 1
10
36.544025
20
43.761220
11
37.335658
21
43.973279
0
LINE
8
Layer 1
10
37.335658
20
43.973279
11
37.607288
21
41.910009
0
LINE
8
Layer 1
10
37.607288
20
41.910009
11
36.787800
21
41.910000
0
LINE
8
Layer 1
10
36.544000
20
43.761800
11
35.829403
21
45.486850
0
LINE
8
Layer 1
10
35.829403
20
45.486850
11
36.539177
21
45.896571
0
LINE
8
Layer 1
10
36.539177
20
45.896571
11
37.335565
21
43.973901
0
LINE
8
Layer 1
10
37.335565
20
43.973901
11
36.544000
21
43.761800
0
LINE
8
Layer 1
10
36.787800
20
41.910000
11
36.544025
21
43.761220
0
LINE
8
Layer 1
10
36.544025
20
43.761220
11
37.335658
21
43.973279
0
LINE
8
Layer 1
10
37.335658
20
43.973279
11
37.607288
21
41.910009
0
LINE
8
Layer 1
10
37.607288
20
41.910009
11
36.787800
21
41.910000
0
LINE
8
Layer 1
10
36.544000
20
43.761800
11
35.829403
21
45.486850
0
LINE
8
Layer 1
10
35.829403
20
45.486850
11
36.539177
21
45.896571
0
LINE
8
Layer 1
10
36.539177
20
45.896571
11
37.335565
21
43.973901
0
LINE
8
Layer 1
10
37.335565
20
43.973901
11
36.544000
21
43.761800
0
LINE
8
Layer 1
10
36.787800
20
41.910000
11
36.544025
21
43.761220
0
LINE
8
Layer 1
10
36.544025
20
43.761220
11
37.335658
21
43.973279
0
LINE
8
Layer 1
10
37.335658
20
43.973279
11
37.607288
21
41.910009
0
LINE
8
Layer 1
10
37.607288
20
41.910009
11
36.787800
21
41.910000
0
LINE
8
Layer 1
10
36.544000
20
43.761800
11
35.829403
21
45.486850
0
LINE
8
Layer 1
10
35.829403
20
45.486850
11
36.539177
21
45.896571
0
LINE
8
Layer 1
10
36.539177
20
45.896571
11
37.335565
21
43.973901
0
LINE
8
Layer 1
10
37.335565
20
43.973901
11
36.544000
21
43.761800
0
LINE
8
Layer 1
10
36.787800
20
41.910000
11
36.544025
21
43.761220
0
LINE
8
Layer 1
10
36.544025
20
43.761220
11
37.335658
21
43.973279
0
LINE
8
Layer 1
10
37.335658
20
43.973279
11
37.607288
21
41.910009
0
LINE
8
Layer 1
10
37.607288
20
41.910009
11
36.787800
21
41.910000
0
LINE
8
Layer 1
10
36.544000
20
43.761800
11
35.829403
21
45.486850
0
LINE
8
Layer 1
10
35.829403
20
45.486850
11
36.539177
21
45.896571
0
LINE
8
Layer 1
10
36.539177
20
45.896571
11
37.335565
21
43.973901
0
LINE
8
Layer 1
10
37.335565
20
43.973901
11
36.544000
21
43.761800
0
LINE
8
Layer 1
10
36.787800
20
41.910000
11
36.544025
21
43.761220
0
LINE
8
Layer 1
10
36.544025
20
43.761220
11
37.335658
21
43.973279
0
LINE
8
Layer 1
10
37.335658
20
43.973279
11
37.607288
21
41.910009
0
LINE
8
Layer 1
10
37.607288
20
41.910009
11
36.787800
21
41.910000
0
LINE
8
Layer 1
10
36.544000
20
43.761800
11
35.829403
21
45.486850
0
LINE
8
Layer 1
10
35.829403
20
45.486850
11
36.539177
21
45.896571
0
LINE
8
Layer 1
10
36.539177
20
45.896571
11
37.335565
21
43.973901
0
LINE
8
Layer 1
10
37.335565
20
43.973901
11
36.544000
21
43.761800
0
LINE
8
Layer 1
10
36.787800
20
41.910000
11
36.544025
21
43.761220
0
LINE
8
Layer 1
10
36.544025
20
43.761220
11
37.335658
21
43.973279
0
LINE
8
Layer 1
10
37.335658
20
43.973279
11
37.607288
21
41.910009
0
LINE
8
Layer 1
10
37.607288
20
41.910009
11
36.787800
21
41.910000
0
LINE
8
Layer 1
10
36.544000
20
43.761800
11
35.829403
21
45.486850
0
LINE
8
Layer 1
10
35.829403
20
45.486850
11
36.539177
21
45.896571
0
LINE
8
Layer 1
10
36.539177
20
45.896571
11
37.335565
21
43.973901
0
LINE
8
Layer 1
10
37.335565
20
43.973901
11
36.544000
21
43.761800
0
LINE
8
4fach-Zickzack
10
35.630600
20
-19.732600
11
35.607779
21
-20.255292
0
LINE
8
4fach-Zickzack
10
35.607779
20
-20.255292
11
35.734094
21
-20.808018
0
LINE
8
4fach-Zickzack
10
35.734094
20
-20.808018
11
35.617186
21
-21.335505
0
LINE
8
4fach-Zickzack
10
35.617186
20
-21.335505
11
35.454754
21
-21.850815
0
LINE
8
4fach-Zickzack
10
35.454754
20
-21.850815
11
35.427092
21
-22.433495
0
LINE
8
4fach-Zickzack
10
35.427092
20
-22.433495
11
35.169690
21
-22.928098
0
LINE
8
4fach-Zickzack
10
35.169690
20
-22.928098
11
34.870156
21
-23.398403
0
LINE
8
4fach-Zickzack
10
34.870156
20
-23.398403
11
34.379400
21
-23.713871
0
LINE
8
4fach-Zickzack
10
34.379400
20
-23.713871
11
34.014358
21
-24.112354
0
LINE
8
4fach-Zickzack
10
34.014358
20
-24.112354
11
33.615956
21
-24.477524
0
LINE
8
4fach-Zickzack
10
33.615956
20
-24.477524
11
33.073246
21
-24.645235
0
LINE
8
4fach-Zickzack
10
33.073246
20
-24.645235
11
32.631992
21
-24.926345
0
LINE
8
4fach-Zickzack
10
32.631992
20
-24.926345
11
32.167917
21
-25.167928
0
LINE
8
4fach-Zickzack
10
32.167917
20
-25.167928
11
31.617474
21
-25.182323
0
LINE
8
4fach-Zickzack
10
31.617474
20
-25.182323
11
31.134836
21
-25.334540
0
LINE
8
4fach-Zickzack
10
31.134836
20
-25.334540
11
30.640758
21
-25.444105
0
LINE
8
4fach-Zickzack
10
30.640758
20
-25.444105
11
30.121775
21
-25.313382
0
LINE
8
4fach-Zickzack
10
30.121775
20
-25.313382
11
29.633382
21
-25.334711
0
LINE
8
4fach-Zickzack
10
29.633382
20
-25.334711
11
29.144994
21
-25.313382
0
LINE
8
4fach-Zickzack
10
29.144994
20
-25.313382
11
28.626011
21
-25.444105
0
LINE
8
4fach-Zickzack
10
28.626011
20
-25.444105
11
28.131934
21
-25.334540
0
LINE
8
4fach-Zickzack
10
28.131934
20
-25.334540
11
27.649296
21
-25.182323
0
LINE
8
4fach-Zickzack
10
27.649296
20
-25.182323
11
27.098850
21
-25.167930
0
LINE
8
4fach-Zickzack
10
27.098850
20
-25.167930
11
26.634775
21
-24.926347
0
LINE
8
4fach-Zickzack
10
26.634775
20
-24.926347
11
26.193521
21
-24.645237
0
LINE
8
4fach-Zickzack
10
26.193521
20
-24.645237
11
25.650813
21
-24.477525
0
LINE
8
4fach-Zickzack
10
25.650813
20
-24.477525
11
25.252411
21
-24.112356
0
LINE
8
4fach-Zickzack
10
25.252411
20
-24.112356
11
24.887370
21
-23.713873
0
LINE
8
4fach-Zickzack
10
24.887370
20
-23.713873
11
24.396612
21
-23.398408
0
LINE
8
4fach-Zickzack
10
24.396612
20
-23.398408
11
24.097077
21
-22.928103
0
LINE
8
4fach-Zickzack
10
24.097077
20
-22.928103
11
23.839675
21
-22.433500
0
LINE
8
4fach-Zickzack
10
23.839675
20
-22.433500
11
23.812016
21
-21.850818
0
LINE
8
4fach-Zickzack
10
23.812016
20
-21.850818
11
23.649584
21
-21.335507
0
LINE
8
4fach-Zickzack
10
23.649584
20
-21.335507
11
23.532675
21
-20.808021
0
LINE
8
4fach-Zickzack
10
23.532675
20
-20.808021
11
23.658987
21
-20.255296
0
LINE
8
4fach-Zickzack
10
23.658987
20
-20.255296
11
23.636165
21
-19.732604
0
LINE
8
4fach-Zickzack
10
23.636165
20
-19.732604
11
23.658986
21
-19.209912
0
LINE
8
4fach-Zickzack
10
23.658986
20
-19.209912
11
23.921786
21
-18.725772
0
LINE
8
4fach-Zickzack
10
23.921786
20
-18.725772
11
24.031238
21
-18.231929
0
LINE
8
4fach-Zickzack
10
24.031238
20
-18.231929
11
24.183309
21
-17.749487
0
LINE
8
4fach-Zickzack
10
24.183309
20
-17.749487
11
24.555893
21
-17.365588
0
LINE
8
4fach-Zickzack
10
24.555893
20
-17.365588
11
24.781475
21
-16.932128
0
LINE
8
4fach-Zickzack
10
24.781475
20
-16.932128
11
25.043981
21
-16.519962
0
LINE
8
4fach-Zickzack
10
25.043981
20
-16.519962
11
25.190076
21
-16.005259
0
LINE
8
4fach-Zickzack
10
25.190076
20
-16.005259
11
25.531835
21
-15.632191
0
LINE
8
4fach-Zickzack
10
25.531835
20
-15.632191
11
25.904826
21
-15.290312
0
LINE
8
4fach-Zickzack
10
25.904826
20
-15.290312
11
26.193519
21
-14.819970
0
LINE
8
4fach-Zickzack
10
26.193519
20
-14.819970
11
26.634773
21
-14.538859
0
LINE
8
4fach-Zickzack
10
26.634773
20
-14.538859
11
27.098848
21
-14.297277
0
LINE
8
4fach-Zickzack
10
27.098848
20
-14.297277
11
27.514126
21
-13.911608
0
LINE
8
4fach-Zickzack
10
27.514126
20
-13.911608
11
28.029644
21
-13.749021
0
LINE
8
4fach-Zickzack
10
28.029644
20
-13.749021
11
28.557383
21
-13.631992
0
LINE
8
4fach-Zickzack
10
28.557383
20
-13.631992
11
29.076103
21
-13.364605
0
LINE
8
4fach-Zickzack
10
29.076103
20
-13.364605
11
29.633383
21
-13.340267
0
LINE
8
4fach-Zickzack
10
29.633383
20
-13.340267
11
30.190667
21
-13.364605
0
LINE
8
4fach-Zickzack
10
30.190667
20
-13.364605
11
30.709388
21
-13.631992
0
LINE
8
4fach-Zickzack
10
30.709388
20
-13.631992
11
31.237125
21
-13.749021
0
LINE
8
4fach-Zickzack
10
31.237125
20
-13.749021
11
31.752643
21
-13.911608
0
LINE
8
4fach-Zickzack
10
31.752643
20
-13.911608
11
32.167916
21
-14.297276
0
LINE
8
4fach-Zickzack
10
32.167916
20
-14.297276
11
32.631991
21
-14.538858
0
LINE
8
4fach-Zickzack
10
32.631991
20
-14.538858
11
33.073245
21
-14.819968
0
LINE
8
4fach-Zickzack
10
33.073245
20
-14.819968
11
33.361944
21
-15.290309
0
LINE
8
4fach-Zickzack
10
33.361944
20
-15.290309
11
33.734935
21
-15.632187
0
LINE
8
4fach-Zickzack
10
33.734935
20
-15.632187
11
34.076694
21
-16.005255
0
LINE
8
4fach-Zickzack
10
34.076694
20
-16.005255
11
34.222783
21
-16.519962
0
LINE
8
4fach-Zickzack
10
34.222783
20
-16.519962
11
34.485289
21
-16.932129
0
LINE
8
4fach-Zickzack
10
34.485289
20
-16.932129
11
34.710871
21
-17.365588
0
LINE
8
4fach-Zickzack
10
34.710871
20
-17.365588
11
35.083462
21
-17.749484
0
LINE
8
4fach-Zickzack
10
35.083462
20
-17.749484
11
35.235534
21
-18.231926
0
LINE
8
4fach-Zickzack
10
35.235534
20
-18.231926
11
35.344986
21
-18.725768
0
LINE
8
4fach-Zickzack
10
35.344986
20
-18.725768
11
35.607779
21
-19.209909
0
LINE
8
4fach-Zickzack
10
35.607779
20
-19.209909
11
35.630600
21
-19.732601
0
LINE
8
4fach-Zickzack
10
35.630600
20
-19.732601
11
35.630600
21
-19.732600
0
LINE
8
3fach-Zickzack
10
35.669200
20
-20.796600
11
35.553534
21
-21.318481
0
LINE
8
3fach-Zickzack
10
35.553534
20
-21.318481
11
35.392829
21
-21.828313
0
LINE
8
3fach-Zickzack
10
35.392829
20
-21.828313
11
34.949559
21
-22.210916
0
LINE
8
3fach-Zickzack
10
34.949559
20
-22.210916
11
34.713372
21
-22.664757
0
LINE
8
3fach-Zickzack
10
34.713372
20
-22.664757
11
34.438520
21
-23.096303
0
LINE
8
3fach-Zickzack
10
34.438520
20
-23.096303
11
33.924796
21
-23.333574
0
LINE
8
3fach-Zickzack
10
33.924796
20
-23.333574
11
33.594621
21
-23.693897
0
LINE
8
3fach-Zickzack
10
33.594621
20
-23.693897
11
33.234298
21
-24.024073
0
LINE
8
3fach-Zickzack
10
33.234298
20
-24.024073
11
32.998278
21
-24.536921
0
LINE
8
3fach-Zickzack
10
32.998278
20
-24.536921
11
32.566702
21
-24.811942
0
LINE
8
3fach-Zickzack
10
32.566702
20
-24.811942
11
32.112768
21
-25.048310
0
LINE
8
3fach-Zickzack
10
32.112768
20
-25.048310
11
31.730064
21
-25.491734
0
LINE
8
3fach-Zickzack
10
31.730064
20
-25.491734
11
31.220027
21
-25.652594
0
LINE
8
3fach-Zickzack
10
31.220027
20
-25.652594
11
30.697895
21
-25.768379
0
LINE
8
3fach-Zickzack
10
30.697895
20
-25.768379
11
30.190610
21
-26.100604
0
LINE
8
3fach-Zickzack
10
30.190610
20
-26.100604
11
29.633328
21
-26.124943
0
LINE
8
3fach-Zickzack
10
29.633328
20
-26.124943
11
29.076046
21
-26.100604
0
LINE
8
3fach-Zickzack
10
29.076046
20
-26.100604
11
28.568761
21
-25.768379
0
LINE
8
3fach-Zickzack
10
28.568761
20
-25.768379
11
28.046635
21
-25.652594
0
LINE
8
3fach-Zickzack
10
28.046635
20
-25.652594
11
27.536594
21
-25.491734
0
LINE
8
3fach-Zickzack
10
27.536594
20
-25.491734
11
27.153890
21
-25.048307
0
LINE
8
3fach-Zickzack
10
27.153890
20
-25.048307
11
26.699961
21
-24.811941
0
LINE
8
3fach-Zickzack
10
26.699961
20
-24.811941
11
26.268380
21
-24.536918
0
LINE
8
3fach-Zickzack
10
26.268380
20
-24.536918
11
26.032363
21
-24.024072
0
LINE
8
3fach-Zickzack
10
26.032363
20
-24.024072
11
25.672040
21
-23.693896
0
LINE
8
3fach-Zickzack
10
25.672040
20
-23.693896
11
25.341864
21
-23.333573
0
LINE
8
3fach-Zickzack
10
25.341864
20
-23.333573
11
24.828139
21
-23.096300
0
LINE
8
3fach-Zickzack
10
24.828139
20
-23.096300
11
24.553293
21
-22.664755
0
LINE
8
3fach-Zickzack
10
24.553293
20
-22.664755
11
24.317102
21
-22.210914
0
LINE
8
3fach-Zickzack
10
24.317102
20
-22.210914
11
23.873828
21
-21.828313
0
LINE
8
3fach-Zickzack
10
23.873828
20
-21.828313
11
23.713124
21
-21.318479
0
LINE
8
3fach-Zickzack
10
23.713124
20
-21.318479
11
23.597456
21
-20.796598
0
LINE
8
3fach-Zickzack
10
23.597456
20
-20.796598
11
23.265303
21
-20.289581
0
LINE
8
3fach-Zickzack
10
23.265303
20
-20.289581
11
23.240993
21
-19.732607
0
LINE
8
3fach-Zickzack
10
23.240993
20
-19.732607
11
23.265302
21
-19.175635
0
LINE
8
3fach-Zickzack
10
23.265302
20
-19.175635
11
23.597456
21
-18.668618
0
LINE
8
3fach-Zickzack
10
23.597456
20
-18.668618
11
23.713123
21
-18.146738
0
LINE
8
3fach-Zickzack
10
23.713123
20
-18.146738
11
23.873826
21
-17.636904
0
LINE
8
3fach-Zickzack
10
23.873826
20
-17.636904
11
24.317101
21
-17.254302
0
LINE
8
3fach-Zickzack
10
24.317101
20
-17.254302
11
24.553293
21
-16.800463
0
LINE
8
3fach-Zickzack
10
24.553293
20
-16.800463
11
24.828138
21
-16.368916
0
LINE
8
3fach-Zickzack
10
24.828138
20
-16.368916
11
25.341866
21
-16.131640
0
LINE
8
3fach-Zickzack
10
25.341866
20
-16.131640
11
25.672042
21
-15.771317
0
LINE
8
3fach-Zickzack
10
25.672042
20
-15.771317
11
26.032365
21
-15.441142
0
LINE
8
3fach-Zickzack
10
26.032365
20
-15.441142
11
26.268380
21
-14.928298
0
LINE
8
3fach-Zickzack
10
26.268380
20
-14.928298
11
26.699961
21
-14.653277
0
LINE
8
3fach-Zickzack
10
26.699961
20
-14.653277
11
27.153889
21
-14.416909
0
LINE
8
3fach-Zickzack
10
27.153889
20
-14.416909
11
27.536593
21
-13.973483
0
LINE
8
3fach-Zickzack
10
27.536593
20
-13.973483
11
28.046635
21
-13.812628
0
LINE
8
3fach-Zickzack
10
28.046635
20
-13.812628
11
28.568761
21
-13.696837
0
LINE
8
3fach-Zickzack
10
28.568761
20
-13.696837
11
29.076045
21
-13.364612
0
LINE
8
3fach-Zickzack
10
29.076045
20
-13.364612
11
29.633329
21
-13.340278
0
LINE
8
3fach-Zickzack
10
29.633329
20
-13.340278
11
30.190609
21
-13.364612
0
LINE
8
3fach-Zickzack
10
30.190609
20
-13.364612
11
30.697894
21
-13.696837
0
LINE
8
3fach-Zickzack
10
30.697894
20
-13.696837
11
31.220026
21
-13.812627
0
LINE
8
3fach-Zickzack
10
31.220026
20
-13.812627
11
31.730062
21
-13.973482
0
LINE
8
3fach-Zickzack
10
31.730062
20
-13.973482
11
32.112766
21
-14.416906
0
LINE
8
3fach-Zickzack
10
32.112766
20
-14.416906
11
32.566702
21
-14.653277
0
LINE
8
3fach-Zickzack
10
32.566702
20
-14.653277
11
32.998276
21
-14.928295
0
LINE
8
3fach-Zickzack
10
32.998276
20
-14.928295
11
33.234299
21
-15.441145
0
LINE
8
3fach-Zickzack
10
33.234299
20
-15.441145
11
33.594622
21
-15.771320
0
LINE
8
3fach-Zickzack
10
33.594622
20
-15.771320
11
33.924797
21
-16.131643
0
LINE
8
3fach-Zickzack
10
33.924797
20
-16.131643
11
34.438519
21
-16.368913
0
LINE
8
3fach-Zickzack
10
34.438519
20
-16.368913
11
34.713372
21
-16.800464
0
LINE
8
3fach-Zickzack
10
34.713372
20
-16.800464
11
34.949557
21
-17.254300
0
LINE
8
3fach-Zickzack
10
34.949557
20
-17.254300
11
35.392828
21
-17.636906
0
LINE
8
3fach-Zickzack
10
35.392828
20
-17.636906
11
35.553533
21
-18.146734
0
LINE
8
3fach-Zickzack
10
35.553533
20
-18.146734
11
35.669199
21
-18.668614
0
LINE
8
3fach-Zickzack
10
35.669199
20
-18.668614
11
36.001348
21
-19.175633
0
LINE
8
3fach-Zickzack
10
36.001348
20
-19.175633
11
36.025663
21
-19.732612
0
LINE
8
3fach-Zickzack
10
36.025663
20
-19.732612
11
36.001349
21
-20.289579
0
LINE
8
3fach-Zickzack
10
36.001349
20
-20.289579
11
35.669200
21
-20.796598
0
LINE
8
3fach-Zickzack
10
35.669200
20
-20.796598
11
35.669200
21
-20.796600
0
LINE
8
2fach-Zickzack
10
35.235400
20
-19.732600
11
35.214095
21
-20.220718
0
LINE
8
2fach-Zickzack
10
35.214095
20
-20.220718
11
35.382400
21
-20.498104
0
LINE
8
2fach-Zickzack
10
35.382400
20
-20.498104
11
35.539391
21
-20.774002
0
LINE
8
2fach-Zickzack
10
35.539391
20
-20.774002
11
35.426152
21
-21.284790
0
LINE
8
2fach-Zickzack
10
35.426152
20
-21.284790
11
35.268826
21
-21.783765
0
LINE
8
2fach-Zickzack
10
35.268826
20
-21.783765
11
35.353184
21
-22.110814
0
LINE
8
2fach-Zickzack
10
35.353184
20
-22.110814
11
35.427001
21
-22.433496
0
LINE
8
2fach-Zickzack
10
35.427001
20
-22.433496
11
35.169599
21
-22.928099
0
LINE
8
2fach-Zickzack
10
35.169599
20
-22.928099
11
34.870065
21
-23.398404
0
LINE
8
2fach-Zickzack
10
34.870065
20
-23.398404
11
34.553270
21
-23.496441
0
LINE
8
2fach-Zickzack
10
34.553270
20
-23.496441
11
34.227422
21
-23.587531
0
LINE
8
2fach-Zickzack
10
34.227422
20
-23.587531
11
33.873961
21
-23.973267
0
LINE
8
2fach-Zickzack
10
33.873961
20
-23.973267
11
33.488225
21
-24.326729
0
LINE
8
2fach-Zickzack
10
33.488225
20
-24.326729
11
33.171151
21
-24.328471
0
LINE
8
2fach-Zickzack
10
33.171151
20
-24.328471
11
32.847130
21
-24.321159
0
LINE
8
2fach-Zickzack
10
32.847130
20
-24.321159
11
32.434933
21
-24.583830
0
LINE
8
2fach-Zickzack
10
32.434933
20
-24.583830
11
32.001386
21
-24.809583
0
LINE
8
2fach-Zickzack
10
32.001386
20
-24.809583
11
31.845105
21
-25.094128
0
LINE
8
2fach-Zickzack
10
31.845105
20
-25.094128
11
31.684459
21
-25.368132
0
LINE
8
2fach-Zickzack
10
31.684459
20
-25.368132
11
31.185484
21
-25.525458
0
LINE
8
2fach-Zickzack
10
31.185484
20
-25.525458
11
30.674696
21
-25.638697
0
LINE
8
2fach-Zickzack
10
30.674696
20
-25.638697
11
30.433380
21
-25.875302
0
LINE
8
2fach-Zickzack
10
30.433380
20
-25.875302
11
30.190574
21
-26.100595
0
LINE
8
2fach-Zickzack
10
30.190574
20
-26.100595
11
29.633290
21
-26.124931
0
LINE
8
2fach-Zickzack
10
29.633290
20
-26.124931
11
29.076011
21
-26.100595
0
LINE
8
2fach-Zickzack
10
29.076011
20
-26.100595
11
28.833204
21
-25.875302
0
LINE
8
2fach-Zickzack
10
28.833204
20
-25.875302
11
28.591886
21
-25.638697
0
LINE
8
2fach-Zickzack
10
28.591886
20
-25.638697
11
28.081098
21
-25.525458
0
LINE
8
2fach-Zickzack
10
28.081098
20
-25.525458
11
27.582123
21
-25.368132
0
LINE
8
2fach-Zickzack
10
27.582123
20
-25.368132
11
27.421477
21
-25.094130
0
LINE
8
2fach-Zickzack
10
27.421477
20
-25.094130
11
27.265199
21
-24.809587
0
LINE
8
2fach-Zickzack
10
27.265199
20
-24.809587
11
26.831652
21
-24.583832
0
LINE
8
2fach-Zickzack
10
26.831652
20
-24.583832
11
26.419454
21
-24.321163
0
LINE
8
2fach-Zickzack
10
26.419454
20
-24.321163
11
26.095432
21
-24.328471
0
LINE
8
2fach-Zickzack
10
26.095432
20
-24.328471
11
25.778356
21
-24.326726
0
LINE
8
2fach-Zickzack
10
25.778356
20
-24.326726
11
25.392620
21
-23.973264
0
LINE
8
2fach-Zickzack
10
25.392620
20
-23.973264
11
25.039158
21
-23.587528
0
LINE
8
2fach-Zickzack
10
25.039158
20
-23.587528
11
24.713311
21
-23.496440
0
LINE
8
2fach-Zickzack
10
24.713311
20
-23.496440
11
24.396517
21
-23.398406
0
LINE
8
2fach-Zickzack
10
24.396517
20
-23.398406
11
24.096982
21
-22.928099
0
LINE
8
2fach-Zickzack
10
24.096982
20
-22.928099
11
23.839580
21
-22.433499
0
LINE
8
2fach-Zickzack
10
23.839580
20
-22.433499
11
23.913395
21
-22.110813
0
LINE
8
2fach-Zickzack
10
23.913395
20
-22.110813
11
23.997752
21
-21.783762
0
LINE
8
2fach-Zickzack
10
23.997752
20
-21.783762
11
23.840426
21
-21.284787
0
LINE
8
2fach-Zickzack
10
23.840426
20
-21.284787
11
23.727187
21
-20.773999
0
LINE
8
2fach-Zickzack
10
23.727187
20
-20.773999
11
23.884178
21
-20.498103
0
LINE
8
2fach-Zickzack
10
23.884178
20
-20.498103
11
24.052483
21
-20.220719
0
LINE
8
2fach-Zickzack
10
24.052483
20
-20.220719
11
24.031177
21
-19.732595
0
LINE
8
2fach-Zickzack
10
24.031177
20
-19.732595
11
24.052482
21
-19.244478
0
LINE
8
2fach-Zickzack
10
24.052482
20
-19.244478
11
23.884178
21
-18.967088
0
LINE
8
2fach-Zickzack
10
23.884178
20
-18.967088
11
23.727187
21
-18.691188
0
LINE
8
2fach-Zickzack
10
23.727187
20
-18.691188
11
23.840425
21
-18.180400
0
LINE
8
2fach-Zickzack
10
23.840425
20
-18.180400
11
23.997751
21
-17.681425
0
LINE
8
2fach-Zickzack
10
23.997751
20
-17.681425
11
23.913393
21
-17.354378
0
LINE
8
2fach-Zickzack
10
23.913393
20
-17.354378
11
23.839577
21
-17.031699
0
LINE
8
2fach-Zickzack
10
23.839577
20
-17.031699
11
24.096979
21
-16.537093
0
LINE
8
2fach-Zickzack
10
24.096979
20
-16.537093
11
24.396514
21
-16.066789
0
LINE
8
2fach-Zickzack
10
24.396514
20
-16.066789
11
24.713308
21
-15.968750
0
LINE
8
2fach-Zickzack
10
24.713308
20
-15.968750
11
25.039155
21
-15.877659
0
LINE
8
2fach-Zickzack
10
25.039155
20
-15.877659
11
25.392617
21
-15.491923
0
LINE
8
2fach-Zickzack
10
25.392617
20
-15.491923
11
25.778353
21
-15.138461
0
LINE
8
2fach-Zickzack
10
25.778353
20
-15.138461
11
26.095429
21
-15.136720
0
LINE
8
2fach-Zickzack
10
26.095429
20
-15.136720
11
26.419451
21
-15.144031
0
LINE
8
2fach-Zickzack
10
26.419451
20
-15.144031
11
26.831648
21
-14.881358
0
LINE
8
2fach-Zickzack
10
26.831648
20
-14.881358
11
27.265196
21
-14.655607
0
LINE
8
2fach-Zickzack
10
27.265196
20
-14.655607
11
27.421475
21
-14.371060
0
LINE
8
2fach-Zickzack
10
27.421475
20
-14.371060
11
27.582120
21
-14.097054
0
LINE
8
2fach-Zickzack
10
27.582120
20
-14.097054
11
28.081095
21
-13.939728
0
LINE
8
2fach-Zickzack
10
28.081095
20
-13.939728
11
28.591883
21
-13.826489
0
LINE
8
2fach-Zickzack
10
28.591883
20
-13.826489
11
28.833193
21
-13.589889
0
LINE
8
2fach-Zickzack
10
28.833193
20
-13.589889
11
29.076008
21
-13.364597
0
LINE
8
2fach-Zickzack
10
29.076008
20
-13.364597
11
29.633288
21
-13.340259
0
LINE
8
2fach-Zickzack
10
29.633288
20
-13.340259
11
30.190572
21
-13.364597
0
LINE
8
2fach-Zickzack
10
30.190572
20
-13.364597
11
30.433377
21
-13.589886
0
LINE
8
2fach-Zickzack
10
30.433377
20
-13.589886
11
30.674693
21
-13.826489
0
LINE
8
2fach-Zickzack
10
30.674693
20
-13.826489
11
31.185481
21
-13.939728
0
LINE
8
2fach-Zickzack
10
31.185481
20
-13.939728
11
31.684456
21
-14.097054
0
LINE
8
2fach-Zickzack
10
31.684456
20
-14.097054
11
31.845103
21
-14.371060
0
LINE
8
2fach-Zickzack
10
31.845103
20
-14.371060
11
32.001383
21
-14.655607
0
LINE
8
2fach-Zickzack
10
32.001383
20
-14.655607
11
32.434930
21
-14.881360
0
LINE
8
2fach-Zickzack
10
32.434930
20
-14.881360
11
32.847127
21
-15.144031
0
LINE
8
2fach-Zickzack
10
32.847127
20
-15.144031
11
33.171148
21
-15.136719
0
LINE
8
2fach-Zickzack
10
33.171148
20
-15.136719
11
33.488223
21
-15.138461
0
LINE
8
2fach-Zickzack
10
33.488223
20
-15.138461
11
33.873959
21
-15.491922
0
LINE
8
2fach-Zickzack
10
33.873959
20
-15.491922
11
34.227420
21
-15.877658
0
LINE
8
2fach-Zickzack
10
34.227420
20
-15.877658
11
34.553267
21
-15.968749
0
LINE
8
2fach-Zickzack
10
34.553267
20
-15.968749
11
34.870062
21
-16.066787
0
LINE
8
2fach-Zickzack
10
34.870062
20
-16.066787
11
35.169597
21
-16.537093
0
LINE
8
2fach-Zickzack
10
35.169597
20
-16.537093
11
35.426999
21
-17.031696
0
LINE
8
2fach-Zickzack
10
35.426999
20
-17.031696
11
35.353183
21
-17.354376
0
LINE
8
2fach-Zickzack
10
35.353183
20
-17.354376
11
35.268825
21
-17.681424
0
LINE
8
2fach-Zickzack
10
35.268825
20
-17.681424
11
35.426151
21
-18.180399
0
LINE
8
2fach-Zickzack
10
35.426151
20
-18.180399
11
35.539390
21
-18.691187
0
LINE
8
2fach-Zickzack
10
35.539390
20
-18.691187
11
35.382399
21
-18.967085
0
LINE
8
2fach-Zickzack
10
35.382399
20
-18.967085
11
35.214094
21
-19.244473
0
LINE
8
2fach-Zickzack
10
35.214094
20
-19.244473
11
35.235399
21
-19.732594
0
LINE
8
2fach-Zickzack
10
35.235399
20
-19.732594
11
35.235400
21
-19.732600
0
LINE
8
Bernina Universal
10
34.897700
20
39.994500
11
35.167252
21
39.599593
0
LINE
8
Bernina Universal
10
35.167252
20
39.599593
11
35.426815
21
39.208822
0
LINE
8
Bernina Universal
10
35.426815
20
39.208822
11
35.169412
21
38.714284
0
LINE
8
Bernina Universal
10
35.169412
20
38.714284
11
34.869887
21
38.244043
0
LINE
8
Bernina Universal
10
34.869887
20
38.244043
11
34.530518
21
37.801677
0
LINE
8
Bernina Universal
10
34.530518
20
37.801677
11
34.153873
21
37.390550
0
LINE
8
Bernina Universal
10
34.153873
20
37.390550
11
33.742822
21
37.013795
0
LINE
8
Bernina Universal
10
33.742822
20
37.013795
11
33.298255
21
37.163360
0
LINE
8
Bernina Universal
10
33.298255
20
37.163360
11
32.847106
21
37.321504
0
LINE
8
Bernina Universal
10
32.847106
20
37.321504
11
32.434909
21
37.058834
0
LINE
8
Bernina Universal
10
32.434909
20
37.058834
11
32.001362
21
36.833079
0
LINE
8
Bernina Universal
10
32.001362
20
36.833079
11
31.549776
21
36.645974
0
LINE
8
Bernina Universal
10
31.549776
20
36.645974
11
31.083579
21
36.498942
0
LINE
8
Bernina Universal
10
31.083579
20
36.498942
11
30.606330
21
36.393109
0
LINE
8
Bernina Universal
10
30.606330
20
36.393109
11
30.399355
21
35.962251
0
LINE
8
Bernina Universal
10
30.399355
20
35.962251
11
30.190970
21
35.542111
0
LINE
8
Bernina Universal
10
30.190970
20
35.542111
11
29.633720
21
35.517727
0
LINE
8
Bernina Universal
10
29.633720
20
35.517727
11
29.076450
21
35.542026
0
LINE
8
Bernina Universal
10
29.076450
20
35.542026
11
28.523408
21
35.614814
0
LINE
8
Bernina Universal
10
28.523408
20
35.614814
11
27.978818
21
35.735540
0
LINE
8
Bernina Universal
10
27.978818
20
35.735540
11
27.446825
21
35.903284
0
LINE
8
Bernina Universal
10
27.446825
20
35.903284
11
27.337308
21
36.326828
0
LINE
8
Bernina Universal
10
27.337308
20
36.326828
11
27.231929
21
36.760361
0
LINE
8
Bernina Universal
10
27.231929
20
36.760361
11
26.831634
21
37.058831
0
LINE
8
Bernina Universal
10
26.831634
20
37.058831
11
26.419437
21
37.321501
0
LINE
8
Bernina Universal
10
26.419437
20
37.321501
11
26.031719
21
37.619090
0
LINE
8
Bernina Universal
10
26.031719
20
37.619090
11
25.671433
21
37.949324
0
LINE
8
Bernina Universal
10
25.671433
20
37.949324
11
25.341315
21
38.309682
0
LINE
8
Bernina Universal
10
25.341315
20
38.309682
11
24.864613
21
38.273693
0
LINE
8
Bernina Universal
10
24.864613
20
38.273693
11
24.396487
21
38.244297
0
LINE
8
Bernina Universal
10
24.396487
20
38.244297
11
24.096915
21
38.714676
0
LINE
8
Bernina Universal
10
24.096915
20
38.714676
11
23.839491
21
39.209349
0
LINE
8
Bernina Universal
10
23.839491
20
39.209349
11
23.626168
21
39.724551
0
LINE
8
Bernina Universal
10
23.626168
20
39.724551
11
23.458564
21
40.256353
0
LINE
8
Bernina Universal
10
23.458564
20
40.256353
11
23.337945
21
40.800723
0
LINE
8
Bernina Universal
10
23.337945
20
40.800723
11
23.689847
21
41.110626
0
LINE
8
Bernina Universal
10
23.689847
20
41.110626
11
24.052467
21
41.421942
0
LINE
8
Bernina Universal
10
24.052467
20
41.421942
11
24.031162
21
41.910062
0
LINE
8
Bernina Universal
10
24.031162
20
41.910062
11
24.052467
21
42.398179
0
LINE
8
Bernina Universal
10
24.052467
20
42.398179
11
24.116223
21
42.882593
0
LINE
8
Bernina Universal
10
24.116223
20
42.882593
11
24.221947
21
43.359616
0
LINE
8
Bernina Universal
10
24.221947
20
43.359616
11
24.368838
21
43.825624
0
LINE
8
Bernina Universal
10
24.368838
20
43.825624
11
24.099291
21
44.220531
0
LINE
8
Bernina Universal
10
24.099291
20
44.220531
11
23.839732
21
44.611305
0
LINE
8
Bernina Universal
10
23.839732
20
44.611305
11
24.097135
21
45.105843
0
LINE
8
Bernina Universal
10
24.097135
20
45.105843
11
24.396660
21
45.576087
0
LINE
8
Bernina Universal
10
24.396660
20
45.576087
11
24.736030
21
46.018453
0
LINE
8
Bernina Universal
10
24.736030
20
46.018453
11
25.112674
21
46.429580
0
LINE
8
Bernina Universal
10
25.112674
20
46.429580
11
25.523726
21
46.806332
0
LINE
8
Bernina Universal
10
25.523726
20
46.806332
11
25.968290
21
46.656767
0
LINE
8
Bernina Universal
10
25.968290
20
46.656767
11
26.419435
21
46.498623
0
LINE
8
Bernina Universal
10
26.419435
20
46.498623
11
26.831632
21
46.761293
0
LINE
8
Bernina Universal
10
26.831632
20
46.761293
11
27.265179
21
46.987045
0
LINE
8
Bernina Universal
10
27.265179
20
46.987045
11
27.716766
21
47.174150
0
LINE
8
Bernina Universal
10
27.716766
20
47.174150
11
28.182963
21
47.321182
0
LINE
8
Bernina Universal
10
28.182963
20
47.321182
11
28.660212
21
47.427015
0
LINE
8
Bernina Universal
10
28.660212
20
47.427015
11
28.867189
21
47.857876
0
LINE
8
Bernina Universal
10
28.867189
20
47.857876
11
29.075578
21
48.278019
0
LINE
8
Bernina Universal
10
29.075578
20
48.278019
11
29.632831
21
48.302403
0
LINE
8
Bernina Universal
10
29.632831
20
48.302403
11
30.190098
21
48.278104
0
LINE
8
Bernina Universal
10
30.190098
20
48.278104
11
30.743140
21
48.205316
0
LINE
8
Bernina Universal
10
30.743140
20
48.205316
11
31.287730
21
48.084587
0
LINE
8
Bernina Universal
10
31.287730
20
48.084587
11
31.819721
21
47.916846
0
LINE
8
Bernina Universal
10
31.819721
20
47.916846
11
31.912611
21
47.456939
0
LINE
8
Bernina Universal
10
31.912611
20
47.456939
11
32.001362
21
46.987046
0
LINE
8
Bernina Universal
10
32.001362
20
46.987046
11
32.434909
21
46.761294
0
LINE
8
Bernina Universal
10
32.434909
20
46.761294
11
32.847103
21
46.498622
0
LINE
8
Bernina Universal
10
32.847103
20
46.498622
11
33.234822
21
46.201033
0
LINE
8
Bernina Universal
10
33.234822
20
46.201033
11
33.595107
21
45.870802
0
LINE
8
Bernina Universal
10
33.595107
20
45.870802
11
33.925225
21
45.510441
0
LINE
8
Bernina Universal
10
33.925225
20
45.510441
11
34.401932
21
45.546436
0
LINE
8
Bernina Universal
10
34.401932
20
45.546436
11
34.870062
21
45.575846
0
LINE
8
Bernina Universal
10
34.870062
20
45.575846
11
35.169632
21
45.105472
0
LINE
8
Bernina Universal
10
35.169632
20
45.105472
11
35.427055
21
44.610796
0
LINE
8
Bernina Universal
10
35.427055
20
44.610796
11
35.640381
21
44.095594
0
LINE
8
Bernina Universal
10
35.640381
20
44.095594
11
35.807984
21
43.563789
0
LINE
8
Bernina Universal
10
35.807984
20
43.563789
11
35.928603
21
43.019419
0
LINE
8
Bernina Universal
10
35.928603
20
43.019419
11
35.576697
21
42.709505
0
LINE
8
Bernina Universal
10
35.576697
20
42.709505
11
35.214071
21
42.398183
0
LINE
8
Bernina Universal
10
35.214071
20
42.398183
11
35.235379
21
41.910063
0
LINE
8
Bernina Universal
10
35.235379
20
41.910063
11
35.214071
21
41.421946
0
LINE
8
Bernina Universal
10
35.214071
20
41.421946
11
35.150314
21
40.937532
0
LINE
8
Bernina Universal
10
35.150314
20
40.937532
11
35.044591
21
40.460512
0
LINE
8
Bernina Universal
10
35.044591
20
40.460512
11
34.897700
21
39.994501
0
LINE
8
Bernina Universal
10
34.897700
20
39.994501
11
34.897700
21
39.994500
0
LINE
8
Lycrastich
10
34.546400
20
38.470800
11
34.240396
21
38.386725
0
LINE
8
Lycrastich
10
34.240396
20
38.386725
11
33.925280
21
38.309637
0
LINE
8
Lycrastich
10
33.925280
20
38.309637
11
33.595162
21
37.949279
0
LINE
8
Lycrastich
10
33.595162
20
37.949279
11
33.234875
21
37.619045
0
LINE
8
Lycrastich
10
33.234875
20
37.619045
11
32.847158
21
37.321456
0
LINE
8
Lycrastich
10
32.847158
20
37.321456
11
32.434961
21
37.058786
0
LINE
8
Lycrastich
10
32.434961
20
37.058786
11
32.001414
21
36.833031
0
LINE
8
Lycrastich
10
32.001414
20
36.833031
11
31.845403
21
36.548543
0
LINE
8
Lycrastich
10
31.845403
20
36.548543
11
31.684995
21
36.274666
0
LINE
8
Lycrastich
10
31.684995
20
36.274666
11
31.185916
21
36.117265
0
LINE
8
Lycrastich
10
31.185916
20
36.117265
11
30.675010
21
36.003967
0
LINE
8
Lycrastich
10
30.675010
20
36.003967
11
30.433896
21
35.767334
0
LINE
8
Lycrastich
10
30.433896
20
35.767334
11
30.191281
21
35.542091
0
LINE
8
Lycrastich
10
30.191281
20
35.542091
11
29.634090
21
35.517679
0
LINE
8
Lycrastich
10
29.634090
20
35.517679
11
29.076871
21
35.541950
0
LINE
8
Lycrastich
10
29.076871
20
35.541950
11
28.523868
21
35.614698
0
LINE
8
Lycrastich
10
28.523868
20
35.614698
11
27.979296
21
35.735385
0
LINE
8
Lycrastich
10
27.979296
20
35.735385
11
27.447305
21
35.903084
0
LINE
8
Lycrastich
10
27.447305
20
35.903084
11
27.270563
21
36.183719
0
LINE
8
Lycrastich
10
27.270563
20
36.183719
11
27.098217
21
36.474967
0
LINE
8
Lycrastich
10
27.098217
20
36.474967
11
26.634094
21
36.716639
0
LINE
8
Lycrastich
10
26.634094
20
36.716639
11
26.192826
21
36.997837
0
LINE
8
Lycrastich
10
26.192826
20
36.997837
11
26.108801
21
37.303881
0
LINE
8
Lycrastich
10
26.108801
20
37.303881
11
26.031770
21
37.619041
0
LINE
8
Lycrastich
10
26.031770
20
37.619041
11
25.671484
21
37.949275
0
LINE
8
Lycrastich
10
25.671484
20
37.949275
11
25.341366
21
38.309633
0
LINE
8
Lycrastich
10
25.341366
20
38.309633
11
25.043924
21
38.697375
0
LINE
8
Lycrastich
10
25.043924
20
38.697375
11
24.781418
21
39.109540
0
LINE
8
Lycrastich
10
24.781418
20
39.109540
11
24.555836
21
39.542999
0
LINE
8
Lycrastich
10
24.555836
20
39.542999
11
24.271417
21
39.698974
0
LINE
8
Lycrastich
10
24.271417
20
39.698974
11
23.997610
21
39.859347
0
LINE
8
Lycrastich
10
23.997610
20
39.859347
11
23.840358
21
40.358225
0
LINE
8
Lycrastich
10
23.840358
20
40.358225
11
23.727178
21
40.868889
0
LINE
8
Lycrastich
10
23.727178
20
40.868889
11
23.490521
21
41.110552
0
LINE
8
Lycrastich
10
23.490521
20
41.110552
11
23.265252
21
41.353713
0
LINE
8
Lycrastich
10
23.265252
20
41.353713
11
23.241001
21
41.910771
0
LINE
8
Lycrastich
10
23.241001
20
41.910771
11
23.265385
21
42.467809
0
LINE
8
Lycrastich
10
23.265385
20
42.467809
11
23.338213
21
43.020580
0
LINE
8
Lycrastich
10
23.338213
20
43.020580
11
23.458929
21
43.564887
0
LINE
8
Lycrastich
10
23.458929
20
43.564887
11
23.626609
21
44.096593
0
LINE
8
Lycrastich
10
23.626609
20
44.096593
11
23.906867
21
44.272474
0
LINE
8
Lycrastich
10
23.906867
20
44.272474
11
24.197737
21
44.443957
0
LINE
8
Lycrastich
10
24.197737
20
44.443957
11
24.439229
21
44.907986
0
LINE
8
Lycrastich
10
24.439229
20
44.907986
11
24.720249
21
45.349223
0
LINE
8
Lycrastich
10
24.720249
20
45.349223
11
25.023920
21
45.430786
0
LINE
8
Lycrastich
10
25.023920
20
45.430786
11
25.336703
21
45.505351
0
LINE
8
Lycrastich
10
25.336703
20
45.505351
11
25.671484
21
45.870747
0
LINE
8
Lycrastich
10
25.671484
20
45.870747
11
26.031770
21
46.200981
0
LINE
8
Lycrastich
10
26.031770
20
46.200981
11
26.419488
21
46.498570
0
LINE
8
Lycrastich
10
26.419488
20
46.498570
11
26.831685
21
46.761240
0
LINE
8
Lycrastich
10
26.831685
20
46.761240
11
27.265232
21
46.986992
0
LINE
8
Lycrastich
10
27.265232
20
46.986992
11
27.421245
21
47.271480
0
LINE
8
Lycrastich
10
27.421245
20
47.271480
11
27.581653
21
47.545357
0
LINE
8
Lycrastich
10
27.581653
20
47.545357
11
28.080730
21
47.702758
0
LINE
8
Lycrastich
10
28.080730
20
47.702758
11
28.591637
21
47.816056
0
LINE
8
Lycrastich
10
28.591637
20
47.816056
11
28.832751
21
48.052687
0
LINE
8
Lycrastich
10
28.832751
20
48.052687
11
29.075366
21
48.277929
0
LINE
8
Lycrastich
10
29.075366
20
48.277929
11
29.632557
21
48.302341
0
LINE
8
Lycrastich
10
29.632557
20
48.302341
11
30.189776
21
48.278070
0
LINE
8
Lycrastich
10
30.189776
20
48.278070
11
30.742779
21
48.205322
0
LINE
8
Lycrastich
10
30.742779
20
48.205322
11
31.287352
21
48.084638
0
LINE
8
Lycrastich
10
31.287352
20
48.084638
11
31.819340
21
47.916933
0
LINE
8
Lycrastich
10
31.819340
20
47.916933
11
31.996082
21
47.636300
0
LINE
8
Lycrastich
10
31.996082
20
47.636300
11
32.168429
21
47.345055
0
LINE
8
Lycrastich
10
32.168429
20
47.345055
11
32.632552
21
47.103383
0
LINE
8
Lycrastich
10
32.632552
20
47.103383
11
33.073820
21
46.822185
0
LINE
8
Lycrastich
10
33.073820
20
46.822185
11
33.157839
21
46.516137
0
LINE
8
Lycrastich
10
33.157839
20
46.516137
11
33.234876
21
46.200978
0
LINE
8
Lycrastich
10
33.234876
20
46.200978
11
33.595161
21
45.870747
0
LINE
8
Lycrastich
10
33.595161
20
45.870747
11
33.925279
21
45.510386
0
LINE
8
Lycrastich
10
33.925279
20
45.510386
11
34.222721
21
45.122644
0
LINE
8
Lycrastich
10
34.222721
20
45.122644
11
34.485227
21
44.710479
0
LINE
8
Lycrastich
10
34.485227
20
44.710479
11
34.710810
21
44.277020
0
LINE
8
Lycrastich
10
34.710810
20
44.277020
11
34.995231
21
44.121046
0
LINE
8
Lycrastich
10
34.995231
20
44.121046
11
35.269039
21
43.960675
0
LINE
8
Lycrastich
10
35.269039
20
43.960675
11
35.426290
21
43.461800
0
LINE
8
Lycrastich
10
35.426290
20
43.461800
11
35.539469
21
42.951136
0
LINE
8
Lycrastich
10
35.539469
20
42.951136
11
35.776128
21
42.709472
0
LINE
8
Lycrastich
10
35.776128
20
42.709472
11
36.001396
21
42.466310
0
LINE
8
Lycrastich
10
36.001396
20
42.466310
11
36.025667
21
41.909246
0
LINE
8
Lycrastich
10
36.025667
20
41.909246
11
36.001283
21
41.352205
0
LINE
8
Lycrastich
10
36.001283
20
41.352205
11
35.928456
21
40.799437
0
LINE
8
Lycrastich
10
35.928456
20
40.799437
11
35.807741
21
40.255130
0
LINE
8
Lycrastich
10
35.807741
20
40.255130
11
35.640062
21
39.723429
0
LINE
8
Lycrastich
10
35.640062
20
39.723429
11
35.359793
21
39.547549
0
LINE
8
Lycrastich
10
35.359793
20
39.547549
11
35.068912
21
39.376065
0
LINE
8
Lycrastich
10
35.068912
20
39.376065
11
34.827420
21
38.912036
0
LINE
8
Lycrastich
10
34.827420
20
38.912036
11
34.546400
21
38.470799
0
LINE
8
Lycrastich
10
34.546400
20
38.470799
11
34.546400
21
38.470800
0
LINE
8
Stich
10
35.510600
20
41.836800
11
35.488276
21
41.325589
0
LINE
8
Stich
10
35.488276
20
41.325589
11
35.162126
21
40.864269
0
LINE
8
Stich
10
35.162126
20
40.864269
11
35.056403
21
40.387246
0
LINE
8
Stich
10
35.056403
20
40.387246
11
34.909512
21
39.921238
0
LINE
8
Stich
10
34.909512
20
39.921238
11
35.179305
21
39.526436
0
LINE
8
Stich
10
35.179305
20
39.526436
11
35.438788
21
39.135904
0
LINE
8
Stich
10
35.438788
20
39.135904
11
35.181385
21
38.641301
0
LINE
8
Stich
10
35.181385
20
38.641301
11
34.881852
21
38.170998
0
LINE
8
Stich
10
34.881852
20
38.170998
11
34.413872
21
38.200313
0
LINE
8
Stich
10
34.413872
20
38.200313
11
33.937038
21
38.236423
0
LINE
8
Stich
10
33.937038
20
38.236423
11
33.606923
21
37.876062
0
LINE
8
Stich
10
33.606923
20
37.876062
11
33.246636
21
37.545831
0
LINE
8
Stich
10
33.246636
20
37.545831
11
33.282842
21
37.068983
0
LINE
8
Stich
10
33.282842
20
37.068983
11
33.312256
21
36.600988
0
LINE
8
Stich
10
33.312256
20
36.600988
11
32.841916
21
36.301265
0
LINE
8
Stich
10
32.841916
20
36.301265
11
32.347215
21
36.043670
0
LINE
8
Stich
10
32.347215
20
36.043670
11
31.956537
21
36.303034
0
LINE
8
Stich
10
31.956537
20
36.303034
11
31.561591
21
36.572712
0
LINE
8
Stich
10
31.561591
20
36.572712
11
31.095394
21
36.425680
0
LINE
8
Stich
10
31.095394
20
36.425680
11
30.618145
21
36.319847
0
LINE
8
Stich
10
30.618145
20
36.319847
11
30.156297
21
35.993615
0
LINE
8
Stich
10
30.156297
20
35.993615
11
29.645083
21
35.971291
0
LINE
8
Stich
10
29.645083
20
35.971291
11
29.133869
21
35.993615
0
LINE
8
Stich
10
29.133869
20
35.993615
11
28.672027
21
36.319847
0
LINE
8
Stich
10
28.672027
20
36.319847
11
28.194779
21
36.425677
0
LINE
8
Stich
10
28.194779
20
36.425677
11
27.728581
21
36.572709
0
LINE
8
Stich
10
27.728581
20
36.572709
11
27.166212
21
36.520848
0
LINE
8
Stich
10
27.166212
20
36.520848
11
26.712329
21
36.757124
0
LINE
8
Stich
10
26.712329
20
36.757124
11
26.280766
21
37.032062
0
LINE
8
Stich
10
26.280766
20
37.032062
11
26.043533
21
37.545827
0
LINE
8
Stich
10
26.043533
20
37.545827
11
25.683246
21
37.876058
0
LINE
8
Stich
10
25.683246
20
37.876058
11
25.353128
21
38.236419
0
LINE
8
Stich
10
25.353128
20
38.236419
11
24.876294
21
38.200308
0
LINE
8
Stich
10
24.876294
20
38.200308
11
24.408316
21
38.170991
0
LINE
8
Stich
10
24.408316
20
38.170991
11
24.108781
21
38.641297
0
LINE
8
Stich
10
24.108781
20
38.641297
11
23.851379
21
39.135900
0
LINE
8
Stich
10
23.851379
20
39.135900
11
24.110861
21
39.526430
0
LINE
8
Stich
10
24.110861
20
39.526430
11
24.380654
21
39.921234
0
LINE
8
Stich
10
24.380654
20
39.921234
11
24.233762
21
40.387245
0
LINE
8
Stich
10
24.233762
20
40.387245
11
24.128038
21
40.864265
0
LINE
8
Stich
10
24.128038
20
40.864265
11
23.697019
21
41.071317
0
LINE
8
Stich
10
23.697019
20
41.071317
11
23.277066
21
41.279826
0
LINE
8
Stich
10
23.277066
20
41.279826
11
23.252755
21
41.836800
0
LINE
8
Stich
10
23.252755
20
41.836800
11
23.277066
21
42.393771
0
LINE
8
Stich
10
23.277066
20
42.393771
11
23.697020
21
42.602279
0
LINE
8
Stich
10
23.697020
20
42.602279
11
24.128039
21
42.809332
0
LINE
8
Stich
10
24.128039
20
42.809332
11
24.233763
21
43.286355
0
LINE
8
Stich
10
24.233763
20
43.286355
11
24.380654
21
43.752363
0
LINE
8
Stich
10
24.380654
20
43.752363
11
24.329133
21
44.315684
0
LINE
8
Stich
10
24.329133
20
44.315684
11
24.565410
21
44.769568
0
LINE
8
Stich
10
24.565410
20
44.769568
11
24.840346
21
45.201131
0
LINE
8
Stich
10
24.840346
20
45.201131
11
25.353128
21
45.437179
0
LINE
8
Stich
10
25.353128
20
45.437179
11
25.683246
21
45.797540
0
LINE
8
Stich
10
25.683246
20
45.797540
11
26.043532
21
46.127774
0
LINE
8
Stich
10
26.043532
20
46.127774
11
26.280140
21
46.641108
0
LINE
8
Stich
10
26.280140
20
46.641108
11
26.712337
21
46.916492
0
LINE
8
Stich
10
26.712337
20
46.916492
11
27.166220
21
47.152768
0
LINE
8
Stich
10
27.166220
20
47.152768
11
27.728579
21
47.100890
0
LINE
8
Stich
10
27.728579
20
47.100890
11
28.194777
21
47.247922
0
LINE
8
Stich
10
28.194777
20
47.247922
11
28.672025
21
47.353755
0
LINE
8
Stich
10
28.672025
20
47.353755
11
28.879186
21
47.784807
0
LINE
8
Stich
10
28.879186
20
47.784807
11
29.087803
21
48.204793
0
LINE
8
Stich
10
29.087803
20
48.204793
11
29.645081
21
48.229121
0
LINE
8
Stich
10
29.645081
20
48.229121
11
30.202365
21
48.204793
0
LINE
8
Stich
10
30.202365
20
48.204793
11
30.410981
21
47.784804
0
LINE
8
Stich
10
30.410981
20
47.784804
11
30.618143
21
47.353755
0
LINE
8
Stich
10
30.618143
20
47.353755
11
31.095389
21
47.247922
0
LINE
8
Stich
10
31.095389
20
47.247922
11
31.561589
21
47.100890
0
LINE
8
Stich
10
31.561589
20
47.100890
11
31.956535
21
47.370566
0
LINE
8
Stich
10
31.956535
20
47.370566
11
32.347213
21
47.629932
0
LINE
8
Stich
10
32.347213
20
47.629932
11
32.841914
21
47.372337
0
LINE
8
Stich
10
32.841914
20
47.372337
11
33.312254
21
47.072614
0
LINE
8
Stich
10
33.312254
20
47.072614
11
33.282840
21
46.604619
0
LINE
8
Stich
10
33.282840
20
46.604619
11
33.246634
21
46.127771
0
LINE
8
Stich
10
33.246634
20
46.127771
11
33.606919
21
45.797537
0
LINE
8
Stich
10
33.606919
20
45.797537
11
33.937037
21
45.437179
0
LINE
8
Stich
10
33.937037
20
45.437179
11
34.449834
21
45.201123
0
LINE
8
Stich
10
34.449834
20
45.201123
11
34.724769
21
44.769558
0
LINE
8
Stich
10
34.724769
20
44.769558
11
34.961045
21
44.315677
0
LINE
8
Stich
10
34.961045
20
44.315677
11
34.909509
21
43.752365
0
LINE
8
Stich
10
34.909509
20
43.752365
11
35.056403
21
43.286357
0
LINE
8
Stich
10
35.056403
20
43.286357
11
35.162126
21
42.809337
0
LINE
8
Stich
10
35.162126
20
42.809337
11
35.488276
21
42.348017
0
LINE
8
Stich
10
35.488276
20
42.348017
11
35.510599
21
41.836803
0
LINE
8
Stich
10
35.510599
20
41.836803
11
35.510600
21
41.836800
0
LINE
8
Overlock
10
35.235400
20
41.910000
11
35.214092
21
41.421883
0
LINE
8
Overlock
10
35.214092
20
41.421883
11
35.577325
21
41.110140
0
LINE
8
Overlock
10
35.577325
20
41.110140
11
35.928497
21
40.799984
0
LINE
8
Overlock
10
35.928497
20
40.799984
11
35.807799
21
40.255547
0
LINE
8
Overlock
10
35.807799
20
40.255547
11
35.640106
21
39.723697
0
LINE
8
Overlock
10
35.640106
20
39.723697
11
35.426701
21
39.208487
0
LINE
8
Overlock
10
35.426701
20
39.208487
11
35.169202
21
38.713839
0
LINE
8
Overlock
10
35.169202
20
38.713839
11
34.869573
21
38.243513
0
LINE
8
Overlock
10
34.869573
20
38.243513
11
34.530091
21
37.801093
0
LINE
8
Overlock
10
34.530091
20
37.801093
11
34.153344
21
37.389944
0
LINE
8
Overlock
10
34.153344
20
37.389944
11
33.742195
21
37.013195
0
LINE
8
Overlock
10
33.742195
20
37.013195
11
33.298363
21
37.162494
0
LINE
8
Overlock
10
33.298363
20
37.162494
11
32.847128
21
37.321444
0
LINE
8
Overlock
10
32.847128
20
37.321444
11
32.434931
21
37.058774
0
LINE
8
Overlock
10
32.434931
20
37.058774
11
32.001384
21
36.833019
0
LINE
8
Overlock
10
32.001384
20
36.833019
11
31.912817
21
36.362481
0
LINE
8
Overlock
10
31.912817
20
36.362481
11
31.819591
21
35.903179
0
LINE
8
Overlock
10
31.819591
20
35.903179
11
31.287741
21
35.735488
0
LINE
8
Overlock
10
31.287741
20
35.735488
11
30.743301
21
35.614787
0
LINE
8
Overlock
10
30.743301
20
35.614787
11
30.190414
21
35.541999
0
LINE
8
Overlock
10
30.190414
20
35.541999
11
29.633285
21
35.517672
0
LINE
8
Overlock
10
29.633285
20
35.517672
11
29.076159
21
35.541999
0
LINE
8
Overlock
10
29.076159
20
35.541999
11
28.523269
21
35.614787
0
LINE
8
Overlock
10
28.523269
20
35.614787
11
27.978830
21
35.735488
0
LINE
8
Overlock
10
27.978830
20
35.735488
11
27.446981
21
35.903179
0
LINE
8
Overlock
10
27.446981
20
35.903179
11
27.353764
21
36.362480
0
LINE
8
Overlock
10
27.353764
20
36.362480
11
27.265202
21
36.833019
0
LINE
8
Overlock
10
27.265202
20
36.833019
11
26.831658
21
37.058771
0
LINE
8
Overlock
10
26.831658
20
37.058771
11
26.419461
21
37.321441
0
LINE
8
Overlock
10
26.419461
20
37.321441
11
25.968217
21
37.162494
0
LINE
8
Overlock
10
25.968217
20
37.162494
11
25.524377
21
37.013195
0
LINE
8
Overlock
10
25.524377
20
37.013195
11
25.113228
21
37.389944
0
LINE
8
Overlock
10
25.113228
20
37.389944
11
24.736479
21
37.801093
0
LINE
8
Overlock
10
24.736479
20
37.801093
11
24.396998
21
38.243513
0
LINE
8
Overlock
10
24.396998
20
38.243513
11
24.097368
21
38.713839
0
LINE
8
Overlock
10
24.097368
20
38.713839
11
23.839870
21
39.208487
0
LINE
8
Overlock
10
23.839870
20
39.208487
11
23.626464
21
39.723697
0
LINE
8
Overlock
10
23.626464
20
39.723697
11
23.458772
21
40.255544
0
LINE
8
Overlock
10
23.458772
20
40.255544
11
23.338072
21
40.799984
0
LINE
8
Overlock
10
23.338072
20
40.799984
11
23.689253
21
41.110138
0
LINE
8
Overlock
10
23.689253
20
41.110138
11
24.052493
21
41.421880
0
LINE
8
Overlock
10
24.052493
20
41.421880
11
24.031188
21
41.910000
0
LINE
8
Overlock
10
24.031188
20
41.910000
11
24.052493
21
42.398117
0
LINE
8
Overlock
10
24.052493
20
42.398117
11
23.689254
21
42.709860
0
LINE
8
Overlock
10
23.689254
20
42.709860
11
23.338072
21
43.020016
0
LINE
8
Overlock
10
23.338072
20
43.020016
11
23.458772
21
43.564456
0
LINE
8
Overlock
10
23.458772
20
43.564456
11
23.626464
21
44.096306
0
LINE
8
Overlock
10
23.626464
20
44.096306
11
23.839870
21
44.611514
0
LINE
8
Overlock
10
23.839870
20
44.611514
11
24.097368
21
45.106164
0
LINE
8
Overlock
10
24.097368
20
45.106164
11
24.396998
21
45.576490
0
LINE
8
Overlock
10
24.396998
20
45.576490
11
24.736479
21
46.018910
0
LINE
8
Overlock
10
24.736479
20
46.018910
11
25.113228
21
46.430059
0
LINE
8
Overlock
10
25.113228
20
46.430059
11
25.524377
21
46.806808
0
LINE
8
Overlock
10
25.524377
20
46.806808
11
25.968215
21
46.657508
0
LINE
8
Overlock
10
25.968215
20
46.657508
11
26.419457
21
46.498559
0
LINE
8
Overlock
10
26.419457
20
46.498559
11
26.831654
21
46.761229
0
LINE
8
Overlock
10
26.831654
20
46.761229
11
27.265201
21
46.986981
0
LINE
8
Overlock
10
27.265201
20
46.986981
11
27.353764
21
47.457520
0
LINE
8
Overlock
10
27.353764
20
47.457520
11
27.446980
21
47.916823
0
LINE
8
Overlock
10
27.446980
20
47.916823
11
27.978829
21
48.084514
0
LINE
8
Overlock
10
27.978829
20
48.084514
11
28.523269
21
48.205212
0
LINE
8
Overlock
10
28.523269
20
48.205212
11
29.076156
21
48.278003
0
LINE
8
Overlock
10
29.076156
20
48.278003
11
29.633285
21
48.302330
0
LINE
8
Overlock
10
29.633285
20
48.302330
11
30.190414
21
48.278003
0
LINE
8
Overlock
10
30.190414
20
48.278003
11
30.743301
21
48.205212
0
LINE
8
Overlock
10
30.743301
20
48.205212
11
31.287741
21
48.084514
0
LINE
8
Overlock
10
31.287741
20
48.084514
11
31.819591
21
47.916823
0
LINE
8
Overlock
10
31.819591
20
47.916823
11
31.912814
21
47.457520
0
LINE
8
Overlock
10
31.912814
20
47.457520
11
32.001384
21
46.986981
0
LINE
8
Overlock
10
32.001384
20
46.986981
11
32.434931
21
46.761229
0
LINE
8
Overlock
10
32.434931
20
46.761229
11
32.847125
21
46.498557
0
LINE
8
Overlock
10
32.847125
20
46.498557
11
33.298362
21
46.657508
0
LINE
8
Overlock
10
33.298362
20
46.657508
11
33.742195
21
46.806808
0
LINE
8
Overlock
10
33.742195
20
46.806808
11
34.153344
21
46.430059
0
LINE
8
Overlock
10
34.153344
20
46.430059
11
34.530091
21
46.018910
0
LINE
8
Overlock
10
34.530091
20
46.018910
11
34.869573
21
45.576490
0
LINE
8
Overlock
10
34.869573
20
45.576490
11
35.169202
21
45.106164
0
LINE
8
Overlock
10
35.169202
20
45.106164
11
35.426701
21
44.611514
0
LINE
8
Overlock
10
35.426701
20
44.611514
11
35.640106
21
44.096306
0
LINE
8
Overlock
10
35.640106
20
44.096306
11
35.807799
21
43.564456
0
LINE
8
Overlock
10
35.807799
20
43.564456
11
35.928497
21
43.020019
0
LINE
8
Overlock
10
35.928497
20
43.020019
11
35.577324
21
42.709862
0
LINE
8
Overlock
10
35.577324
20
42.709862
11
35.214092
21
42.398120
0
LINE
8
Overlock
10
35.214092
20
42.398120
11
35.235400
21
41.910000
0
LINE
8
Overlock
10
35.235400
20
41.910000
11
35.235400
21
41.910000
0
LINE
8
Blindstich-Kontrolle
10
36.025600
20
41.910000
11
36.001301
21
41.353029
0
LINE
8
Blindstich-Kontrolle
10
36.001301
20
41.353029
11
35.581076
21
41.144422
0
LINE
8
Blindstich-Kontrolle
10
35.581076
20
41.144422
11
35.150280
21
40.937206
0
LINE
8
Blindstich-Kontrolle
10
35.150280
20
40.937206
11
35.044503
21
40.460070
0
LINE
8
Blindstich-Kontrolle
10
35.044503
20
40.460070
11
34.897542
21
39.993969
0
LINE
8
Blindstich-Kontrolle
10
34.897542
20
39.993969
11
34.710516
21
39.542450
0
LINE
8
Blindstich-Kontrolle
10
34.710516
20
39.542450
11
34.484848
21
39.108949
0
LINE
8
Blindstich-Kontrolle
10
34.484848
20
39.108949
11
34.222260
21
38.696767
0
LINE
8
Blindstich-Kontrolle
10
34.222260
20
38.696767
11
33.924744
21
38.309039
0
LINE
8
Blindstich-Kontrolle
10
33.924744
20
38.309039
11
33.594570
21
37.948715
0
LINE
8
Blindstich-Kontrolle
10
33.594570
20
37.948715
11
33.234246
21
37.618541
0
LINE
8
Blindstich-Kontrolle
10
33.234246
20
37.618541
11
32.846518
21
37.321025
0
LINE
8
Blindstich-Kontrolle
10
32.846518
20
37.321025
11
32.434336
21
37.058437
0
LINE
8
Blindstich-Kontrolle
10
32.434336
20
37.058437
11
32.000835
21
36.832769
0
LINE
8
Blindstich-Kontrolle
10
32.000835
20
36.832769
11
31.549316
21
36.645743
0
LINE
8
Blindstich-Kontrolle
10
31.549316
20
36.645743
11
31.083215
21
36.498782
0
LINE
8
Blindstich-Kontrolle
10
31.083215
20
36.498782
11
30.606079
21
36.393005
0
LINE
8
Blindstich-Kontrolle
10
30.606079
20
36.393005
11
30.399017
21
35.962223
0
LINE
8
Blindstich-Kontrolle
10
30.399017
20
35.962223
11
30.190566
21
35.542010
0
LINE
8
Blindstich-Kontrolle
10
30.190566
20
35.542010
11
29.633282
21
35.517682
0
LINE
8
Blindstich-Kontrolle
10
29.633282
20
35.517682
11
29.076004
21
35.542010
0
LINE
8
Blindstich-Kontrolle
10
29.076004
20
35.542010
11
28.867551
21
35.962222
0
LINE
8
Blindstich-Kontrolle
10
28.867551
20
35.962222
11
28.660489
21
36.393005
0
LINE
8
Blindstich-Kontrolle
10
28.660489
20
36.393005
11
28.183353
21
36.498782
0
LINE
8
Blindstich-Kontrolle
10
28.183353
20
36.498782
11
27.717251
21
36.645743
0
LINE
8
Blindstich-Kontrolle
10
27.717251
20
36.645743
11
27.265732
21
36.832769
0
LINE
8
Blindstich-Kontrolle
10
27.265732
20
36.832769
11
26.832232
21
37.058434
0
LINE
8
Blindstich-Kontrolle
10
26.832232
20
37.058434
11
26.420049
21
37.321025
0
LINE
8
Blindstich-Kontrolle
10
26.420049
20
37.321025
11
26.032320
21
37.618541
0
LINE
8
Blindstich-Kontrolle
10
26.032320
20
37.618541
11
25.671998
21
37.948715
0
LINE
8
Blindstich-Kontrolle
10
25.671998
20
37.948715
11
25.341823
21
38.309036
0
LINE
8
Blindstich-Kontrolle
10
25.341823
20
38.309036
11
25.044309
21
38.696767
0
LINE
8
Blindstich-Kontrolle
10
25.044309
20
38.696767
11
24.781719
21
39.108949
0
LINE
8
Blindstich-Kontrolle
10
24.781719
20
39.108949
11
24.556053
21
39.542448
0
LINE
8
Blindstich-Kontrolle
10
24.556053
20
39.542448
11
24.369028
21
39.993969
0
LINE
8
Blindstich-Kontrolle
10
24.369028
20
39.993969
11
24.222067
21
40.460070
0
LINE
8
Blindstich-Kontrolle
10
24.222067
20
40.460070
11
24.116288
21
40.937206
0
LINE
8
Blindstich-Kontrolle
10
24.116288
20
40.937206
11
23.685494
21
41.144420
0
LINE
8
Blindstich-Kontrolle
10
23.685494
20
41.144420
11
23.265268
21
41.353026
0
LINE
8
Blindstich-Kontrolle
10
23.265268
20
41.353026
11
23.240957
21
41.910000
0
LINE
8
Blindstich-Kontrolle
10
23.240957
20
41.910000
11
23.265268
21
42.466971
0
LINE
8
Blindstich-Kontrolle
10
23.265268
20
42.466971
11
23.685494
21
42.675579
0
LINE
8
Blindstich-Kontrolle
10
23.685494
20
42.675579
11
24.116289
21
42.882797
0
LINE
8
Blindstich-Kontrolle
10
24.116289
20
42.882797
11
24.222067
21
43.359933
0
LINE
8
Blindstich-Kontrolle
10
24.222067
20
43.359933
11
24.369028
21
43.826034
0
LINE
8
Blindstich-Kontrolle
10
24.369028
20
43.826034
11
24.556053
21
44.277553
0
LINE
8
Blindstich-Kontrolle
10
24.556053
20
44.277553
11
24.781719
21
44.711054
0
LINE
8
Blindstich-Kontrolle
10
24.781719
20
44.711054
11
25.044309
21
45.123236
0
LINE
8
Blindstich-Kontrolle
10
25.044309
20
45.123236
11
25.341823
21
45.510967
0
LINE
8
Blindstich-Kontrolle
10
25.341823
20
45.510967
11
25.671998
21
45.871288
0
LINE
8
Blindstich-Kontrolle
10
25.671998
20
45.871288
11
26.032320
21
46.201462
0
LINE
8
Blindstich-Kontrolle
10
26.032320
20
46.201462
11
26.420048
21
46.498978
0
LINE
8
Blindstich-Kontrolle
10
26.420048
20
46.498978
11
26.832231
21
46.761569
0
LINE
8
Blindstich-Kontrolle
10
26.832231
20
46.761569
11
27.265732
21
46.987234
0
LINE
8
Blindstich-Kontrolle
10
27.265732
20
46.987234
11
27.717251
21
47.174260
0
LINE
8
Blindstich-Kontrolle
10
27.717251
20
47.174260
11
28.183352
21
47.321221
0
LINE
8
Blindstich-Kontrolle
10
28.183352
20
47.321221
11
28.660486
21
47.426998
0
LINE
8
Blindstich-Kontrolle
10
28.660486
20
47.426998
11
28.867549
21
47.857778
0
LINE
8
Blindstich-Kontrolle
10
28.867549
20
47.857778
11
29.076004
21
48.277990
0
LINE
8
Blindstich-Kontrolle
10
29.076004
20
48.277990
11
29.633282
21
48.302317
0
LINE
8
Blindstich-Kontrolle
10
29.633282
20
48.302317
11
30.190566
21
48.277990
0
LINE
8
Blindstich-Kontrolle
10
30.190566
20
48.277990
11
30.399017
21
47.857779
0
LINE
8
Blindstich-Kontrolle
10
30.399017
20
47.857779
11
30.606079
21
47.426998
0
LINE
8
Blindstich-Kontrolle
10
30.606079
20
47.426998
11
31.083215
21
47.321221
0
LINE
8
Blindstich-Kontrolle
10
31.083215
20
47.321221
11
31.549316
21
47.174260
0
LINE
8
Blindstich-Kontrolle
10
31.549316
20
47.174260
11
32.000835
21
46.987234
0
LINE
8
Blindstich-Kontrolle
10
32.000835
20
46.987234
11
32.434336
21
46.761569
0
LINE
8
Blindstich-Kontrolle
10
32.434336
20
46.761569
11
32.846518
21
46.498978
0
LINE
8
Blindstich-Kontrolle
10
32.846518
20
46.498978
11
33.234246
21
46.201462
0
LINE
8
Blindstich-Kontrolle
10
33.234246
20
46.201462
11
33.594570
21
45.871288
0
LINE
8
Blindstich-Kontrolle
10
33.594570
20
45.871288
11
33.924744
21
45.510967
0
LINE
8
Blindstich-Kontrolle
10
33.924744
20
45.510967
11
34.222260
21
45.123239
0
LINE
8
Blindstich-Kontrolle
10
34.222260
20
45.123239
11
34.484848
21
44.711054
0
LINE
8
Blindstich-Kontrolle
10
34.484848
20
44.711054
11
34.710516
21
44.277555
0
LINE
8
Blindstich-Kontrolle
10
34.710516
20
44.277555
11
34.897542
21
43.826034
0
LINE
8
Blindstich-Kontrolle
10
34.897542
20
43.826034
11
35.044503
21
43.359936
0
LINE
8
Blindstich-Kontrolle
10
35.044503
20
43.359936
11
35.150280
21
42.882797
0
LINE
8
Blindstich-Kontrolle
10
35.150280
20
42.882797
11
35.581074
21
42.675581
0
LINE
8
Blindstich-Kontrolle
10
35.581074
20
42.675581
11
36.001301
21
42.466974
0
LINE
8
Blindstich-Kontrolle
10
36.001301
20
42.466974
11
36.025600
21
41.910000
0
LINE
8
Blindstich-Kontrolle
10
36.025600
20
41.910000
11
36.025600
21
41.910000
0
LINE
8
Stretch Blindstich
10
36.025700
20
-19.732600
11
36.001375
21
-20.289729
0
LINE
8
Stretch Blindstich
10
36.001375
20
-20.289729
11
35.581925
21
-20.498226
0
LINE
8
Stretch Blindstich
10
35.581925
20
-20.498226
11
35.150417
21
-20.705135
0
LINE
8
Stretch Blindstich
10
35.150417
20
-20.705135
11
35.044694
21
-21.182156
0
LINE
8
Stretch Blindstich
10
35.044694
20
-21.182156
11
34.897803
21
-21.648165
0
LINE
8
Stretch Blindstich
10
34.897803
20
-21.648165
11
34.949600
21
-22.210908
0
LINE
8
Stretch Blindstich
10
34.949600
20
-22.210908
11
34.713411
21
-22.664749
0
LINE
8
Stretch Blindstich
10
34.713411
20
-22.664749
11
34.438562
21
-23.096295
0
LINE
8
Stretch Blindstich
10
34.438562
20
-23.096295
11
33.925329
21
-23.332981
0
LINE
8
Stretch Blindstich
10
33.925329
20
-23.332981
11
33.595212
21
-23.693341
0
LINE
8
Stretch Blindstich
10
33.595212
20
-23.693341
11
33.234925
21
-24.023574
0
LINE
8
Stretch Blindstich
10
33.234925
20
-24.023574
11
32.998320
21
-24.536914
0
LINE
8
Stretch Blindstich
10
32.998320
20
-24.536914
11
32.566742
21
-24.811935
0
LINE
8
Stretch Blindstich
10
32.566742
20
-24.811935
11
32.112810
21
-25.048303
0
LINE
8
Stretch Blindstich
10
32.112810
20
-25.048303
11
31.549878
21
-24.996693
0
LINE
8
Stretch Blindstich
10
31.549878
20
-24.996693
11
31.083680
21
-25.143725
0
LINE
8
Stretch Blindstich
10
31.083680
20
-25.143725
11
30.606430
21
-25.249558
0
LINE
8
Stretch Blindstich
10
30.606430
20
-25.249558
11
30.399258
21
-25.681112
0
LINE
8
Stretch Blindstich
10
30.399258
20
-25.681112
11
30.190497
21
-26.100608
0
LINE
8
Stretch Blindstich
10
30.190497
20
-26.100608
11
29.633368
21
-26.124932
0
LINE
8
Stretch Blindstich
10
29.633368
20
-26.124932
11
29.076239
21
-26.100608
0
LINE
8
Stretch Blindstich
10
29.076239
20
-26.100608
11
28.867480
21
-25.681113
0
LINE
8
Stretch Blindstich
10
28.867480
20
-25.681113
11
28.660309
21
-25.249559
0
LINE
8
Stretch Blindstich
10
28.660309
20
-25.249559
11
28.183062
21
-25.143727
0
LINE
8
Stretch Blindstich
10
28.183062
20
-25.143727
11
27.716864
21
-24.996695
0
LINE
8
Stretch Blindstich
10
27.716864
20
-24.996695
11
27.153933
21
-25.048302
0
LINE
8
Stretch Blindstich
10
27.153933
20
-25.048302
11
26.700002
21
-24.811935
0
LINE
8
Stretch Blindstich
10
26.700002
20
-24.811935
11
26.268424
21
-24.536913
0
LINE
8
Stretch Blindstich
10
26.268424
20
-24.536913
11
26.031815
21
-24.023578
0
LINE
8
Stretch Blindstich
10
26.031815
20
-24.023578
11
25.671528
21
-23.693345
0
LINE
8
Stretch Blindstich
10
25.671528
20
-23.693345
11
25.341410
21
-23.332985
0
LINE
8
Stretch Blindstich
10
25.341410
20
-23.332985
11
24.828183
21
-23.096296
0
LINE
8
Stretch Blindstich
10
24.828183
20
-23.096296
11
24.553334
21
-22.664750
0
LINE
8
Stretch Blindstich
10
24.553334
20
-22.664750
11
24.317145
21
-22.210910
0
LINE
8
Stretch Blindstich
10
24.317145
20
-22.210910
11
24.368935
21
-21.648170
0
LINE
8
Stretch Blindstich
10
24.368935
20
-21.648170
11
24.222043
21
-21.182159
0
LINE
8
Stretch Blindstich
10
24.222043
20
-21.182159
11
24.116319
21
-20.705138
0
LINE
8
Stretch Blindstich
10
24.116319
20
-20.705138
11
23.684811
21
-20.498227
0
LINE
8
Stretch Blindstich
10
23.684811
20
-20.498227
11
23.265361
21
-20.289730
0
LINE
8
Stretch Blindstich
10
23.265361
20
-20.289730
11
23.241036
21
-19.732601
0
LINE
8
Stretch Blindstich
10
23.241036
20
-19.732601
11
23.265361
21
-19.175472
0
LINE
8
Stretch Blindstich
10
23.265361
20
-19.175472
11
23.684811
21
-18.966977
0
LINE
8
Stretch Blindstich
10
23.684811
20
-18.966977
11
24.116319
21
-18.760069
0
LINE
8
Stretch Blindstich
10
24.116319
20
-18.760069
11
24.222043
21
-18.283047
0
LINE
8
Stretch Blindstich
10
24.222043
20
-18.283047
11
24.368934
21
-17.817038
0
LINE
8
Stretch Blindstich
10
24.368934
20
-17.817038
11
24.317144
21
-17.254298
0
LINE
8
Stretch Blindstich
10
24.317144
20
-17.254298
11
24.553332
21
-16.800458
0
LINE
8
Stretch Blindstich
10
24.553332
20
-16.800458
11
24.828181
21
-16.368912
0
LINE
8
Stretch Blindstich
10
24.828181
20
-16.368912
11
25.341409
21
-16.132222
0
LINE
8
Stretch Blindstich
10
25.341409
20
-16.132222
11
25.671527
21
-15.771862
0
LINE
8
Stretch Blindstich
10
25.671527
20
-15.771862
11
26.031814
21
-15.441629
0
LINE
8
Stretch Blindstich
10
26.031814
20
-15.441629
11
26.268423
21
-14.928294
0
LINE
8
Stretch Blindstich
10
26.268423
20
-14.928294
11
26.700001
21
-14.653272
0
LINE
8
Stretch Blindstich
10
26.700001
20
-14.653272
11
27.153932
21
-14.416904
0
LINE
8
Stretch Blindstich
10
27.153932
20
-14.416904
11
27.716863
21
-14.468512
0
LINE
8
Stretch Blindstich
10
27.716863
20
-14.468512
11
28.183061
21
-14.321480
0
LINE
8
Stretch Blindstich
10
28.183061
20
-14.321480
11
28.660310
21
-14.215647
0
LINE
8
Stretch Blindstich
10
28.660310
20
-14.215647
11
28.867482
21
-13.784091
0
LINE
8
Stretch Blindstich
10
28.867482
20
-13.784091
11
29.076240
21
-13.364595
0
LINE
8
Stretch Blindstich
10
29.076240
20
-13.364595
11
29.633369
21
-13.340270
0
LINE
8
Stretch Blindstich
10
29.633369
20
-13.340270
11
30.190497
21
-13.364595
0
LINE
8
Stretch Blindstich
10
30.190497
20
-13.364595
11
30.399258
21
-13.784092
0
LINE
8
Stretch Blindstich
10
30.399258
20
-13.784092
11
30.606431
21
-14.215648
0
LINE
8
Stretch Blindstich
10
30.606431
20
-14.215648
11
31.083679
21
-14.321481
0
LINE
8
Stretch Blindstich
10
31.083679
20
-14.321481
11
31.549877
21
-14.468513
0
LINE
8
Stretch Blindstich
10
31.549877
20
-14.468513
11
32.112809
21
-14.416902
0
LINE
8
Stretch Blindstich
10
32.112809
20
-14.416902
11
32.566741
21
-14.653269
0
LINE
8
Stretch Blindstich
10
32.566741
20
-14.653269
11
32.998319
21
-14.928291
0
LINE
8
Stretch Blindstich
10
32.998319
20
-14.928291
11
33.234925
21
-15.441631
0
LINE
8
Stretch Blindstich
10
33.234925
20
-15.441631
11
33.595211
21
-15.771864
0
LINE
8
Stretch Blindstich
10
33.595211
20
-15.771864
11
33.925328
21
-16.132223
0
LINE
8
Stretch Blindstich
10
33.925328
20
-16.132223
11
34.438562
21
-16.368909
0
LINE
8
Stretch Blindstich
10
34.438562
20
-16.368909
11
34.713411
21
-16.800455
0
LINE
8
Stretch Blindstich
10
34.713411
20
-16.800455
11
34.949600
21
-17.254296
0
LINE
8
Stretch Blindstich
10
34.949600
20
-17.254296
11
34.897802
21
-17.817038
0
LINE
8
Stretch Blindstich
10
34.897802
20
-17.817038
11
35.044694
21
-18.283047
0
LINE
8
Stretch Blindstich
10
35.044694
20
-18.283047
11
35.150417
21
-18.760067
0
LINE
8
Stretch Blindstich
10
35.150417
20
-18.760067
11
35.581926
21
-18.966976
0
LINE
8
Stretch Blindstich
10
35.581926
20
-18.966976
11
36.001376
21
-19.175472
0
LINE
8
Stretch Blindstich
10
36.001376
20
-19.175472
11
36.025701
21
-19.732601
0
LINE
8
Stretch Blindstich
10
36.025701
20
-19.732601
11
36.025700
21
-19.732600
0
LINE
8
Layer 1
10
33.916200
20
-19.732600
11
33.755190
21
-20.894820
0
LINE
8
Layer 1
10
33.755190
20
-20.894820
11
33.657914
21
-20.804690
0
LINE
8
Layer 1
10
33.657914
20
-20.804690
11
33.659228
21
-21.193214
0
LINE
8
Layer 1
10
33.659228
20
-21.193214
11
33.657772
21
-21.197149
0
LINE
8
Layer 1
10
33.657772
20
-21.197149
11
33.659228
21
-21.197746
0
LINE
8
Layer 1
10
33.659228
20
-21.197746
11
33.659526
21
-21.297502
0
LINE
8
Layer 1
10
33.659526
20
-21.297502
11
33.723843
21
-21.221373
0
LINE
8
Layer 1
10
33.723843
20
-21.221373
11
33.977609
21
-20.921083
0
LINE
8
Layer 1
10
33.977609
20
-20.921083
11
33.820828
21
-20.921680
0
LINE
8
Layer 1
10
33.820828
20
-20.921680
11
33.986796
21
-19.732630
0
LINE
8
Layer 1
10
33.986796
20
-19.732630
11
33.916200
21
-19.732600
0
LINE
8
Mitnehmer gelb
10
30.274500
20
46.047800
11
30.347545
21
46.320407
0
LINE
8
Mitnehmer gelb
10
30.347545
20
46.320407
11
30.557731
21
46.594950
0
LINE
8
Mitnehmer gelb
10
30.557731
20
46.594950
11
30.900584
21
46.639705
0
LINE
8
Mitnehmer gelb
10
30.900584
20
46.639705
11
31.175127
21
46.429518
0
LINE
8
Mitnehmer gelb
10
31.175127
20
46.429518
11
31.219882
21
46.086666
0
LINE
8
Mitnehmer gelb
10
31.219882
20
46.086666
11
31.146840
21
45.814059
0
LINE
8
Mitnehmer gelb
10
31.146840
20
45.814059
11
30.936653
21
45.539516
0
LINE
8
Mitnehmer gelb
10
30.936653
20
45.539516
11
30.593798
21
45.494761
0
LINE
8
Mitnehmer gelb
10
30.593798
20
45.494761
11
30.319256
21
45.704947
0
LINE
8
Mitnehmer gelb
10
30.319256
20
45.704947
11
30.274500
21
46.047800
0
LINE
8
Mitnehmer gelb
10
30.274500
20
46.047800
11
30.274500
21
46.047800
0
LINE
8
Mitnehmer gelb
10
32.257500
20
45.172900
11
32.457056
21
45.372459
0
LINE
8
Mitnehmer gelb
10
32.457056
20
45.372459
11
32.776358
21
45.505127
0
LINE
8
Mitnehmer gelb
10
32.776358
20
45.505127
11
33.095657
21
45.372459
0
LINE
8
Mitnehmer gelb
10
33.095657
20
45.372459
11
33.228325
21
45.053162
0
LINE
8
Mitnehmer gelb
10
33.228325
20
45.053162
11
33.095657
21
44.733864
0
LINE
8
Mitnehmer gelb
10
33.095657
20
44.733864
11
32.896095
21
44.534305
0
LINE
8
Mitnehmer gelb
10
32.896095
20
44.534305
11
32.576797
21
44.401637
0
LINE
8
Mitnehmer gelb
10
32.576797
20
44.401637
11
32.257500
21
44.534305
0
LINE
8
Mitnehmer gelb
10
32.257500
20
44.534305
11
32.124832
21
44.853601
0
LINE
8
Mitnehmer gelb
10
32.124832
20
44.853601
11
32.257500
21
45.172900
0
LINE
8
Mitnehmer gelb
10
32.257500
20
45.172900
11
32.257500
21
45.172900
0
LINE
8
Mitnehmer gelb
10
33.537400
20
43.423600
11
33.810001
21
43.496642
0
LINE
8
Mitnehmer gelb
10
33.810001
20
43.496642
11
34.152857
21
43.451887
0
LINE
8
Mitnehmer gelb
10
34.152857
20
43.451887
11
34.363043
21
43.177344
0
LINE
8
Mitnehmer gelb
10
34.363043
20
43.177344
11
34.318288
21
42.834490
0
LINE
8
Mitnehmer gelb
10
34.318288
20
42.834490
11
34.043745
21
42.624305
0
LINE
8
Mitnehmer gelb
10
34.043745
20
42.624305
11
33.771141
21
42.551263
0
LINE
8
Mitnehmer gelb
10
33.771141
20
42.551263
11
33.428285
21
42.596016
0
LINE
8
Mitnehmer gelb
10
33.428285
20
42.596016
11
33.218102
21
42.870561
0
LINE
8
Mitnehmer gelb
10
33.218102
20
42.870561
11
33.262855
21
43.213412
0
LINE
8
Mitnehmer gelb
10
33.262855
20
43.213412
11
33.537400
21
43.423600
0
LINE
8
Mitnehmer gelb
10
33.537400
20
43.423600
11
33.537400
21
43.423600
0
LINE
8
Mitnehmer gelb
10
33.771100
20
41.268800
11
34.043701
21
41.195758
0
LINE
8
Mitnehmer gelb
10
34.043701
20
41.195758
11
34.318246
21
40.985570
0
LINE
8
Mitnehmer gelb
10
34.318246
20
40.985570
11
34.363001
21
40.642719
0
LINE
8
Mitnehmer gelb
10
34.363001
20
40.642719
11
34.152815
21
40.368175
0
LINE
8
Mitnehmer gelb
10
34.152815
20
40.368175
11
33.809962
21
40.323421
0
LINE
8
Mitnehmer gelb
10
33.809962
20
40.323421
11
33.537358
21
40.396463
0
LINE
8
Mitnehmer gelb
10
33.537358
20
40.396463
11
33.262812
21
40.606650
0
LINE
8
Mitnehmer gelb
10
33.262812
20
40.606650
11
33.218060
21
40.949502
0
LINE
8
Mitnehmer gelb
10
33.218060
20
40.949502
11
33.428242
21
41.224045
0
LINE
8
Mitnehmer gelb
10
33.428242
20
41.224045
11
33.771099
21
41.268800
0
LINE
8
Mitnehmer gelb
10
33.771099
20
41.268800
11
33.771100
21
41.268800
0
LINE
8
Mitnehmer gelb
10
32.896100
20
39.285800
11
33.095659
21
39.086244
0
LINE
8
Mitnehmer gelb
10
33.095659
20
39.086244
11
33.228327
21
38.766941
0
LINE
8
Mitnehmer gelb
10
33.228327
20
38.766941
11
33.095659
21
38.447643
0
LINE
8
Mitnehmer gelb
10
33.095659
20
38.447643
11
32.776361
21
38.314974
0
LINE
8
Mitnehmer gelb
10
32.776361
20
38.314974
11
32.457064
21
38.447643
0
LINE
8
Mitnehmer gelb
10
32.457064
20
38.447643
11
32.257505
21
38.647205
0
LINE
8
Mitnehmer gelb
10
32.257505
20
38.647205
11
32.124836
21
38.966504
0
LINE
8
Mitnehmer gelb
10
32.124836
20
38.966504
11
32.257505
21
39.285800
0
LINE
8
Mitnehmer gelb
10
32.257505
20
39.285800
11
32.576801
21
39.418468
0
LINE
8
Mitnehmer gelb
10
32.576801
20
39.418468
11
32.896100
21
39.285800
0
LINE
8
Mitnehmer gelb
10
32.896100
20
39.285800
11
32.896100
21
39.285800
0
LINE
8
Mitnehmer gelb
10
31.146900
20
38.006000
11
31.219942
21
37.733399
0
LINE
8
Mitnehmer gelb
10
31.219942
20
37.733399
11
31.175187
21
37.390543
0
LINE
8
Mitnehmer gelb
10
31.175187
20
37.390543
11
30.900644
21
37.180357
0
LINE
8
Mitnehmer gelb
10
30.900644
20
37.180357
11
30.557789
21
37.225111
0
LINE
8
Mitnehmer gelb
10
30.557789
20
37.225111
11
30.347605
21
37.499655
0
LINE
8
Mitnehmer gelb
10
30.347605
20
37.499655
11
30.274563
21
37.772259
0
LINE
8
Mitnehmer gelb
10
30.274563
20
37.772259
11
30.319316
21
38.115115
0
LINE
8
Mitnehmer gelb
10
30.319316
20
38.115115
11
30.593861
21
38.325298
0
LINE
8
Mitnehmer gelb
10
30.593861
20
38.325298
11
30.936712
21
38.280545
0
LINE
8
Mitnehmer gelb
10
30.936712
20
38.280545
11
31.146900
21
38.006000
0
LINE
8
Mitnehmer gelb
10
31.146900
20
38.006000
11
31.146900
21
38.006000
0
LINE
8
Mitnehmer gelb
10
28.992100
20
37.772200
11
28.919058
21
37.499599
0
LINE
8
Mitnehmer gelb
10
28.919058
20
37.499599
11
28.708870
21
37.225054
0
LINE
8
Mitnehmer gelb
10
28.708870
20
37.225054
11
28.366019
21
37.180299
0
LINE
8
Mitnehmer gelb
10
28.366019
20
37.180299
11
28.091473
21
37.390485
0
LINE
8
Mitnehmer gelb
10
28.091473
20
37.390485
11
28.046720
21
37.733338
0
LINE
8
Mitnehmer gelb
10
28.046720
20
37.733338
11
28.119764
21
38.005942
0
LINE
8
Mitnehmer gelb
10
28.119764
20
38.005942
11
28.329950
21
38.280488
0
LINE
8
Mitnehmer gelb
10
28.329950
20
38.280488
11
28.672803
21
38.325240
0
LINE
8
Mitnehmer gelb
10
28.672803
20
38.325240
11
28.947346
21
38.115058
0
LINE
8
Mitnehmer gelb
10
28.947346
20
38.115058
11
28.992101
21
37.772201
0
LINE
8
Mitnehmer gelb
10
28.992101
20
37.772201
11
28.992100
21
37.772200
0
LINE
8
Mitnehmer gelb
10
27.009100
20
38.647200
11
26.809543
21
38.447641
0
LINE
8
Mitnehmer gelb
10
26.809543
20
38.447641
11
26.490242
21
38.314973
0
LINE
8
Mitnehmer gelb
10
26.490242
20
38.314973
11
26.170945
21
38.447641
0
LINE
8
Mitnehmer gelb
10
26.170945
20
38.447641
11
26.038275
21
38.766938
0
LINE
8
Mitnehmer gelb
10
26.038275
20
38.766938
11
26.170945
21
39.086236
0
LINE
8
Mitnehmer gelb
10
26.170945
20
39.086236
11
26.370504
21
39.285795
0
LINE
8
Mitnehmer gelb
10
26.370504
20
39.285795
11
26.689803
21
39.418464
0
LINE
8
Mitnehmer gelb
10
26.689803
20
39.418464
11
27.009099
21
39.285795
0
LINE
8
Mitnehmer gelb
10
27.009099
20
39.285795
11
27.141768
21
38.966499
0
LINE
8
Mitnehmer gelb
10
27.141768
20
38.966499
11
27.009099
21
38.647200
0
LINE
8
Mitnehmer gelb
10
27.009099
20
38.647200
11
27.009100
21
38.647200
0
LINE
8
Mitnehmer gelb
10
25.729200
20
40.396500
11
25.456600
21
40.323458
0
LINE
8
Mitnehmer gelb
10
25.456600
20
40.323458
11
25.113743
21
40.368213
0
LINE
8
Mitnehmer gelb
10
25.113743
20
40.368213
11
24.903557
21
40.642756
0
LINE
8
Mitnehmer gelb
10
24.903557
20
40.642756
11
24.948310
21
40.985611
0
LINE
8
Mitnehmer gelb
10
24.948310
20
40.985611
11
25.222855
21
41.195795
0
LINE
8
Mitnehmer gelb
10
25.222855
20
41.195795
11
25.495458
21
41.268837
0
LINE
8
Mitnehmer gelb
10
25.495458
20
41.268837
11
25.838314
21
41.224084
0
LINE
8
Mitnehmer gelb
10
25.838314
20
41.224084
11
26.048498
21
40.949539
0
LINE
8
Mitnehmer gelb
10
26.048498
20
40.949539
11
26.003745
21
40.606688
0
LINE
8
Mitnehmer gelb
10
26.003745
20
40.606688
11
25.729200
21
40.396500
0
LINE
8
Mitnehmer gelb
10
25.729200
20
40.396500
11
25.729200
21
40.396500
0
LINE
8
Mitnehmer gelb
10
25.495500
20
42.551300
11
25.222900
21
42.624342
0
LINE
8
Mitnehmer gelb
10
25.222900
20
42.624342
11
24.948355
21
42.834530
0
LINE
8
Mitnehmer gelb
10
24.948355
20
42.834530
11
24.903600
21
43.177381
0
LINE
8
Mitnehmer gelb
10
24.903600
20
43.177381
11
25.113785
21
43.451927
0
LINE
8
Mitnehmer gelb
10
25.113785
20
43.451927
11
25.456640
21
43.496679
0
LINE
8
Mitnehmer gelb
10
25.456640
20
43.496679
11
25.729242
21
43.423637
0
LINE
8
Mitnehmer gelb
10
25.729242
20
43.423637
11
26.003787
21
43.213450
0
LINE
8
Mitnehmer gelb
10
26.003787
20
43.213450
11
26.048540
21
42.870598
0
LINE
8
Mitnehmer gelb
10
26.048540
20
42.870598
11
25.838356
21
42.596055
0
LINE
8
Mitnehmer gelb
10
25.838356
20
42.596055
11
25.495500
21
42.551300
0
LINE
8
Mitnehmer gelb
10
25.495500
20
42.551300
11
25.495500
21
42.551300
0
LINE
8
Mitnehmer gelb
10
26.370500
20
44.534300
11
26.170943
21
44.733859
0
LINE
8
Mitnehmer gelb
10
26.170943
20
44.733859
11
26.038273
21
45.053159
0
LINE
8
Mitnehmer gelb
10
26.038273
20
45.053159
11
26.170941
21
45.372457
0
LINE
8
Mitnehmer gelb
10
26.170941
20
45.372457
11
26.490240
21
45.505128
0
LINE
8
Mitnehmer gelb
10
26.490240
20
45.505128
11
26.809537
21
45.372457
0
LINE
8
Mitnehmer gelb
10
26.809537
20
45.372457
11
27.009096
21
45.172895
0
LINE
8
Mitnehmer gelb
10
27.009096
20
45.172895
11
27.141766
21
44.853596
0
LINE
8
Mitnehmer gelb
10
27.141766
20
44.853596
11
27.009096
21
44.534300
0
LINE
8
Mitnehmer gelb
10
27.009096
20
44.534300
11
26.689801
21
44.401632
0
LINE
8
Mitnehmer gelb
10
26.689801
20
44.401632
11
26.370501
21
44.534300
0
LINE
8
Mitnehmer gelb
10
26.370501
20
44.534300
11
26.370500
21
44.534300
0
LINE
8
Mitnehmer gelb
10
28.119700
20
45.814100
11
28.046657
21
46.086701
0
LINE
8
Mitnehmer gelb
10
28.046657
20
46.086701
11
28.091412
21
46.429557
0
LINE
8
Mitnehmer gelb
10
28.091412
20
46.429557
11
28.365955
21
46.639743
0
LINE
8
Mitnehmer gelb
10
28.365955
20
46.639743
11
28.708809
21
46.594989
0
LINE
8
Mitnehmer gelb
10
28.708809
20
46.594989
11
28.918994
21
46.320445
0
LINE
8
Mitnehmer gelb
10
28.918994
20
46.320445
11
28.992036
21
46.047841
0
LINE
8
Mitnehmer gelb
10
28.992036
20
46.047841
11
28.947283
21
45.704985
0
LINE
8
Mitnehmer gelb
10
28.947283
20
45.704985
11
28.672738
21
45.494802
0
LINE
8
Mitnehmer gelb
10
28.672738
20
45.494802
11
28.329886
21
45.539555
0
LINE
8
Mitnehmer gelb
10
28.329886
20
45.539555
11
28.119699
21
45.814100
0
LINE
8
Mitnehmer gelb
10
28.119699
20
45.814100
11
28.119700
21
45.814100
0
LINE
8
Mitnehmer grün
10
54.638300
20
37.747200
11
54.638300
21
37.465000
0
LINE
8
Mitnehmer grün
10
54.638300
20
37.465000
11
54.506333
21
37.145412
0
LINE
8
Mitnehmer grün
10
54.506333
20
37.145412
11
54.186745
21
37.013445
0
LINE
8
Mitnehmer grün
10
54.186745
20
37.013445
11
53.867157
21
37.145412
0
LINE
8
Mitnehmer grün
10
53.867157
20
37.145412
11
53.735190
21
37.465000
0
LINE
8
Mitnehmer grün
10
53.735190
20
37.465000
11
53.735100
21
37.747200
0
LINE
8
Mitnehmer grün
10
53.735100
20
37.747200
11
53.867067
21
38.066788
0
LINE
8
Mitnehmer grün
10
53.867067
20
38.066788
11
54.186655
21
38.198755
0
LINE
8
Mitnehmer grün
10
54.186655
20
38.198755
11
54.506243
21
38.066788
0
LINE
8
Mitnehmer grün
10
54.506243
20
38.066788
11
54.638210
21
37.747200
0
LINE
8
Mitnehmer grün
10
54.638210
20
37.747200
11
54.638300
21
37.747200
0
LINE
8
Mitnehmer grün
10
31.323600
20
45.740900
11
31.464708
21
45.985307
0
LINE
8
Mitnehmer grün
10
31.464708
20
45.985307
11
31.738791
21
46.196097
0
LINE
8
Mitnehmer grün
10
31.738791
20
46.196097
11
32.081547
21
46.150590
0
LINE
8
Mitnehmer grün
10
32.081547
20
46.150590
11
32.292335
21
45.876509
0
LINE
8
Mitnehmer grün
10
32.292335
20
45.876509
11
32.246827
21
45.533754
0
LINE
8
Mitnehmer grün
10
32.246827
20
45.533754
11
32.105716
21
45.289344
0
LINE
8
Mitnehmer grün
10
32.105716
20
45.289344
11
31.831634
21
45.078556
0
LINE
8
Mitnehmer grün
10
31.831634
20
45.078556
11
31.488880
21
45.124064
0
LINE
8
Mitnehmer grün
10
31.488880
20
45.124064
11
31.278093
21
45.398143
0
LINE
8
Mitnehmer grün
10
31.278093
20
45.398143
11
31.323600
21
45.740900
0
LINE
8
Mitnehmer grün
10
31.323600
20
45.740900
11
31.323600
21
45.740900
0
LINE
8
Mitnehmer grün
10
33.012600
20
44.382500
11
33.257007
21
44.523608
0
LINE
8
Mitnehmer grün
10
33.257007
20
44.523608
11
33.599765
21
44.569115
0
LINE
8
Mitnehmer grün
10
33.599765
20
44.569115
11
33.873846
21
44.358328
0
LINE
8
Mitnehmer grün
10
33.873846
20
44.358328
11
33.919354
21
44.015572
0
LINE
8
Mitnehmer grün
10
33.919354
20
44.015572
11
33.708566
21
43.741492
0
LINE
8
Mitnehmer grün
10
33.708566
20
43.741492
11
33.464156
21
43.600384
0
LINE
8
Mitnehmer grün
10
33.464156
20
43.600384
11
33.121399
21
43.554875
0
LINE
8
Mitnehmer grün
10
33.121399
20
43.554875
11
32.847320
21
43.765664
0
LINE
8
Mitnehmer grün
10
32.847320
20
43.765664
11
32.801812
21
44.108416
0
LINE
8
Mitnehmer grün
10
32.801812
20
44.108416
11
33.012600
21
44.382500
0
LINE
8
Mitnehmer grün
10
33.012600
20
44.382500
11
33.012600
21
44.382500
0
LINE
8
Mitnehmer grün
10
33.796100
20
42.361600
11
34.078300
21
42.361600
0
LINE
8
Mitnehmer grün
10
34.078300
20
42.361600
11
34.397892
21
42.229632
0
LINE
8
Mitnehmer grün
10
34.397892
20
42.229632
11
34.529858
21
41.910045
0
LINE
8
Mitnehmer grün
10
34.529858
20
41.910045
11
34.397892
21
41.590456
0
LINE
8
Mitnehmer grün
10
34.397892
20
41.590456
11
34.078303
21
41.458490
0
LINE
8
Mitnehmer grün
10
34.078303
20
41.458490
11
33.796100
21
41.458500
0
LINE
8
Mitnehmer grün
10
33.796100
20
41.458500
11
33.476510
21
41.590467
0
LINE
8
Mitnehmer grün
10
33.476510
20
41.590467
11
33.344545
21
41.910055
0
LINE
8
Mitnehmer grün
10
33.344545
20
41.910055
11
33.476510
21
42.229642
0
LINE
8
Mitnehmer grün
10
33.476510
20
42.229642
11
33.796100
21
42.361610
0
LINE
8
Mitnehmer grün
10
33.796100
20
42.361610
11
33.796100
21
42.361600
0
LINE
8
Mitnehmer grün
10
33.464200
20
40.219700
11
33.708607
21
40.078592
0
LINE
8
Mitnehmer grün
10
33.708607
20
40.078592
11
33.919397
21
39.804507
0
LINE
8
Mitnehmer grün
10
33.919397
20
39.804507
11
33.873890
21
39.461753
0
LINE
8
Mitnehmer grün
10
33.873890
20
39.461753
11
33.599809
21
39.250964
0
LINE
8
Mitnehmer grün
10
33.599809
20
39.250964
11
33.257054
21
39.296473
0
LINE
8
Mitnehmer grün
10
33.257054
20
39.296473
11
33.012644
21
39.437584
0
LINE
8
Mitnehmer grün
10
33.012644
20
39.437584
11
32.801855
21
39.711666
0
LINE
8
Mitnehmer grün
10
32.801855
20
39.711666
11
32.847364
21
40.054420
0
LINE
8
Mitnehmer grün
10
32.847364
20
40.054420
11
33.121443
21
40.265207
0
LINE
8
Mitnehmer grün
10
33.121443
20
40.265207
11
33.464200
21
40.219700
0
LINE
8
Mitnehmer grün
10
33.464200
20
40.219700
11
33.464200
21
40.219700
0
LINE
8
Mitnehmer grün
10
32.105800
20
38.530700
11
32.246908
21
38.286293
0
LINE
8
Mitnehmer grün
10
32.246908
20
38.286293
11
32.292415
21
37.943535
0
LINE
8
Mitnehmer grün
10
32.292415
20
37.943535
11
32.081628
21
37.669454
0
LINE
8
Mitnehmer grün
10
32.081628
20
37.669454
11
31.738872
21
37.623945
0
LINE
8
Mitnehmer grün
10
31.738872
20
37.623945
11
31.464792
21
37.834734
0
LINE
8
Mitnehmer grün
10
31.464792
20
37.834734
11
31.323684
21
38.079144
0
LINE
8
Mitnehmer grün
10
31.323684
20
38.079144
11
31.278175
21
38.421901
0
LINE
8
Mitnehmer grün
10
31.278175
20
38.421901
11
31.488964
21
38.695980
0
LINE
8
Mitnehmer grün
10
31.488964
20
38.695980
11
31.831716
21
38.741488
0
LINE
8
Mitnehmer grün
10
31.831716
20
38.741488
11
32.105800
21
38.530700
0
LINE
8
Mitnehmer grün
10
32.105800
20
38.530700
11
32.105800
21
38.530700
0
LINE
8
Mitnehmer grün
10
30.084900
20
37.747300
11
30.084900
21
37.465000
0
LINE
8
Mitnehmer grün
10
30.084900
20
37.465000
11
29.952932
21
37.145408
0
LINE
8
Mitnehmer grün
10
29.952932
20
37.145408
11
29.633345
21
37.013442
0
LINE
8
Mitnehmer grün
10
29.633345
20
37.013442
11
29.313755
21
37.145408
0
LINE
8
Mitnehmer grün
10
29.313755
20
37.145408
11
29.181790
21
37.464997
0
LINE
8
Mitnehmer grün
10
29.181790
20
37.464997
11
29.181800
21
37.747300
0
LINE
8
Mitnehmer grün
10
29.181800
20
37.747300
11
29.313767
21
38.066890
0
LINE
8
Mitnehmer grün
10
29.313767
20
38.066890
11
29.633355
21
38.198855
0
LINE
8
Mitnehmer grün
10
29.633355
20
38.198855
11
29.952942
21
38.066890
0
LINE
8
Mitnehmer grün
10
29.952942
20
38.066890
11
30.084910
21
37.747300
0
LINE
8
Mitnehmer grün
10
30.084910
20
37.747300
11
30.084900
21
37.747300
0
LINE
8
Mitnehmer grün
10
27.943000
20
38.079200
11
27.801892
21
37.834793
0
LINE
8
Mitnehmer grün
10
27.801892
20
37.834793
11
27.527808
21
37.624003
0
LINE
8
Mitnehmer grün
10
27.527808
20
37.624003
11
27.185055
21
37.669510
0
LINE
8
Mitnehmer grün
10
27.185055
20
37.669510
11
26.974265
21
37.943591
0
LINE
8
Mitnehmer grün
10
26.974265
20
37.943591
11
27.019775
21
38.286346
0
LINE
8
Mitnehmer grün
10
27.019775
20
38.286346
11
27.160885
21
38.530756
0
LINE
8
Mitnehmer grün
10
27.160885
20
38.530756
11
27.434967
21
38.741546
0
LINE
8
Mitnehmer grün
10
27.434967
20
38.741546
11
27.777721
21
38.696036
0
LINE
8
Mitnehmer grün
10
27.777721
20
38.696036
11
27.988509
21
38.421957
0
LINE
8
Mitnehmer grün
10
27.988509
20
38.421957
11
27.943002
21
38.079200
0
LINE
8
Mitnehmer grün
10
27.943002
20
38.079200
11
27.943000
21
38.079200
0
LINE
8
Mitnehmer grün
10
26.254000
20
39.437600
11
26.009593
21
39.296492
0
LINE
8
Mitnehmer grün
10
26.009593
20
39.296492
11
25.666835
21
39.250985
0
LINE
8
Mitnehmer grün
10
25.666835
20
39.250985
11
25.392754
21
39.461772
0
LINE
8
Mitnehmer grün
10
25.392754
20
39.461772
11
25.347245
21
39.804528
0
LINE
8
Mitnehmer grün
10
25.347245
20
39.804528
11
25.558035
21
40.078608
0
LINE
8
Mitnehmer grün
10
25.558035
20
40.078608
11
25.802444
21
40.219716
0
LINE
8
Mitnehmer grün
10
25.802444
20
40.219716
11
26.145200
21
40.265225
0
LINE
8
Mitnehmer grün
10
26.145200
20
40.265225
11
26.419280
21
40.054436
0
LINE
8
Mitnehmer grün
10
26.419280
20
40.054436
11
26.464788
21
39.711684
0
LINE
8
Mitnehmer grün
10
26.464788
20
39.711684
11
26.254000
21
39.437600
0
LINE
8
Mitnehmer grün
10
26.254000
20
39.437600
11
26.254000
21
39.437600
0
LINE
8
Mitnehmer grün
10
25.470500
20
41.458500
11
25.188300
21
41.458500
0
LINE
8
Mitnehmer grün
10
25.188300
20
41.458500
11
24.868709
21
41.590468
0
LINE
8
Mitnehmer grün
10
24.868709
20
41.590468
11
24.736742
21
41.910055
0
LINE
8
Mitnehmer grün
10
24.736742
20
41.910055
11
24.868708
21
42.229645
0
LINE
8
Mitnehmer grün
10
24.868708
20
42.229645
11
25.188297
21
42.361610
0
LINE
8
Mitnehmer grün
10
25.188297
20
42.361610
11
25.470500
21
42.361600
0
LINE
8
Mitnehmer grün
10
25.470500
20
42.361600
11
25.790091
21
42.229633
0
LINE
8
Mitnehmer grün
10
25.790091
20
42.229633
11
25.922055
21
41.910045
0
LINE
8
Mitnehmer grün
10
25.922055
20
41.910045
11
25.790090
21
41.590458
0
LINE
8
Mitnehmer grün
10
25.790090
20
41.590458
11
25.470500
21
41.458490
0
LINE
8
Mitnehmer grün
10
25.470500
20
41.458490
11
25.470500
21
41.458500
0
LINE
8
Mitnehmer grün
10
25.802500
20
43.600400
11
25.558093
21
43.741508
0
LINE
8
Mitnehmer grün
10
25.558093
20
43.741508
11
25.347303
21
44.015592
0
LINE
8
Mitnehmer grün
10
25.347303
20
44.015592
11
25.392810
21
44.358347
0
LINE
8
Mitnehmer grün
10
25.392810
20
44.358347
11
25.666891
21
44.569137
0
LINE
8
Mitnehmer grün
10
25.666891
20
44.569137
11
26.009646
21
44.523627
0
LINE
8
Mitnehmer grün
10
26.009646
20
44.523627
11
26.254055
21
44.382516
0
LINE
8
Mitnehmer grün
10
26.254055
20
44.382516
11
26.464845
21
44.108435
0
LINE
8
Mitnehmer grün
10
26.464845
20
44.108435
11
26.419335
21
43.765680
0
LINE
8
Mitnehmer grün
10
26.419335
20
43.765680
11
26.145257
21
43.554893
0
LINE
8
Mitnehmer grün
10
26.145257
20
43.554893
11
25.802500
21
43.600400
0
LINE
8
Mitnehmer grün
10
25.802500
20
43.600400
11
25.802500
21
43.600400
0
LINE
8
Mitnehmer grün
10
27.160900
20
45.289300
11
27.019792
21
45.533707
0
LINE
8
Mitnehmer grün
10
27.019792
20
45.533707
11
26.974284
21
45.876465
0
LINE
8
Mitnehmer grün
10
26.974284
20
45.876465
11
27.185072
21
46.150546
0
LINE
8
Mitnehmer grün
10
27.185072
20
46.150546
11
27.527828
21
46.196055
0
LINE
8
Mitnehmer grün
10
27.527828
20
46.196055
11
27.801908
21
45.985266
0
LINE
8
Mitnehmer grün
10
27.801908
20
45.985266
11
27.943017
21
45.740856
0
LINE
8
Mitnehmer grün
10
27.943017
20
45.740856
11
27.988526
21
45.398099
0
LINE
8
Mitnehmer grün
10
27.988526
20
45.398099
11
27.777736
21
45.124020
0
LINE
8
Mitnehmer grün
10
27.777736
20
45.124020
11
27.434983
21
45.078512
0
LINE
8
Mitnehmer grün
10
27.434983
20
45.078512
11
27.160901
21
45.289300
0
LINE
8
Mitnehmer grün
10
27.160901
20
45.289300
11
27.160900
21
45.289300
0
LINE
8
Montage
10
32.667200
20
41.910000
11
32.436261
21
40.748975
0
LINE
8
Montage
10
32.436261
20
40.748975
11
31.778594
21
39.764706
0
LINE
8
Montage
10
31.778594
20
39.764706
11
30.794325
21
39.107039
0
LINE
8
Montage
10
30.794325
20
39.107039
11
29.633300
21
38.876100
0
LINE
8
Montage
10
29.633300
20
38.876100
11
28.472275
21
39.107039
0
LINE
8
Montage
10
28.472275
20
39.107039
11
27.488006
21
39.764706
0
LINE
8
Montage
10
27.488006
20
39.764706
11
26.830339
21
40.748975
0
LINE
8
Montage
10
26.830339
20
40.748975
11
26.599400
21
41.910000
0
LINE
8
Montage
10
26.599400
20
41.910000
11
26.830339
21
43.071025
0
LINE
8
Montage
10
26.830339
20
43.071025
11
27.488006
21
44.055294
0
LINE
8
Montage
10
27.488006
20
44.055294
11
28.472275
21
44.712961
0
LINE
8
Montage
10
28.472275
20
44.712961
11
29.633300
21
44.943900
0
LINE
8
Montage
10
29.633300
20
44.943900
11
30.794325
21
44.712961
0
LINE
8
Montage
10
30.794325
20
44.712961
11
31.778594
21
44.055294
0
LINE
8
Montage
10
31.778594
20
44.055294
11
32.436261
21
43.071025
0
LINE
8
Montage
10
32.436261
20
43.071025
11
32.667200
21
41.910000
0
LINE
8
Montage
10
32.667200
20
41.910000
11
32.667200
21
41.910000
 0 
ENDSEC
 0 
EOF